Song name
# A B C D E F G H I J K L M N O P Q R S T U V W X Y Z

Bears Den - Pompeii tab

---------------------------------------------------------------------------
                             Pompeii - Bear's Den
---------------------------------------------------------------------------
Tabbed by: Joe C

Tuning: Standard capo 9

Amazing song by Bear's Den from their hidden EP. The Bass notes can be seen as the four
beats in a bar.

http://www.youtube.com/watch?v=LgGHVf7dCdw

Intro/Chorus riff
-Play the first note on the second fret of the G string in each 4 bass-note phrase as a
hammer-on. It is played normally the second time
-Listen to the song to get what I mean as well as the general rhythm

   1   2   3   4   1   2   3   4   1   2   3   4   1   2   3   4
e|-----------------------------------------------------------------|
B|--------0---------------0---------------0---------------0--------|
G|----0-2----2---0----0-2----2---0----0-2----2---0----0-2----2---0-|
D|---0---0-----------2---2-----------0---0-----------2---2---------|
A|-----------------0---0---0---0----2--------------3---3---3---3---|
E|-3---3---3---3-------------------0---0---0---0-------------------|

Verse riff:
-For 2nd last open note on the G string, keep your finger on the 2nd fret of the G
string from the last note of the G string, and play the open note as a pull-off for the 
G and
Am chords, and also play the first note of the 2nd fret of the G string as a hammer-on 
(Same as the intro/chorus but only for the G and Am chords)
-It's quite confusing but listen closely for the ryhthm - Can be difficult to hear over
the singer and banjo)

   1   2   3   4   1   2   3   4   1   2   3   4   1   2   3   4
e|-----------------------------------------------------------------|
B|--------0---------------0----------------------------------------|
G|----0-2---2-0--0----0-2---2-0--0----0----0--0-------0-0--0--0-0--|
D|---0---0---0--0----2---2---2--2----0--0----0--0----2---2---2---2-|
A|-----------------0---0---0---0----2----2-------2-3---3---3---3---|
E|-3---3---3---3-------------------0---0---0---0-------------------|

Pre-Chorus/ final chorus chords:
-Single strum for the pre-chorus chords.

   1   2   3   4   1   2   3   4   1   2   3   4   1   2   3   4   (X2)
e|-X---------------X---------------X---------------X-------------|
B|-0---------------0---------------0---------------1-------------|
G|-0---------------2---------------0---------------0-------------|
D|-0---------------2---------------2---------------2-------------|
A|-2---------------0---------------2---------------3-------------|
E|-3-------------------------------0-----------------------------|

-Constant strumming of the same chords for the loud final chorus after the banjo solo.

Structure:
Intro/chorus riff x1
Verse riff x2
Intro/chorus riff x1
Verse riff x2
Chorus/intro riff x4
Verse riff x2
Chorus/intro riff x1
Pre-chorus chords(8 bars)
Banjo solo/guitar comes in (8 bars)
Pre-chorus chords for the rest of the song

Don't forget to rate :)
-Joe
Tap to rate this tab
# A B C D E F G H I J K L M N O P Q R S T U V W X Y Z