Song name
# A B C D E F G H I J K L M N O P Q R S T U V W X Y Z

Beartooth - Dead tab

Simple, raw, hardcore. Enjoy.

Tuning: Drop C#

Intro
|-------------------------------------------------------------------|
|-------------------------------------------------------------------|
|-------------------------------------------------------------0~----|
|-2~~---------------------------------------------------------0~----|
|-2~~---------------------------------------------------------0~----|
|-2~~---------------------------------------------------------0~----|

Riff 1
|-------------------------------------------------------------------|
|-------------------------------------------------------------------|
|-------------------------------------------------------------------|
|-2----2----2--2/1----1/0-----2----2----2---2-1-0-2-1-0-------------|
|-22222222222222/111111/00000-2222222222222-2-1-0-2-1-0-------------|
|-22222222222222/111111/00000-2222222222222-2-1-0-2-1-0-------------|2x
PM .... .... ..   ....   ....  .... .... ..

Riff 2
|-------------------------------------------------------------------|
|-------------------------------------------------------------------|
|-------------------------------------------------------------------|
|-2-----2-----2---2/1-----1/0-----2-----2-----2---2-2-2-2-6-6-6-6---|
|-2-----2-----2---2/1-----1/0-----2-----2-----2---2-2-2-2-6-6-6-6---|
|-2-2-2-2-2-2-2-2-2/1-1-1-1/0-0-0-2-2-2-2-2-2-2-2-2-2-2-2-6-6-6-6---|
PM  . .   . .   .     . .     . .   . .   . .   .
|
|-------------------------------------------------------------------|
|-------------------------------------------------------------------|
|-------------------------------------------------------------------|
|-2-----2-----2---2/1-----1/0-----2-----2-----2---2-2-2-2-8-8-8-8---|
|-2-----2-----2---2/1-----1/0-----2-----2-----2---2-2-2-2-8-8-8-8---|
|-2-2-2-2-2-2-2-2-2/1-1-1-1/0-0-0-2-2-2-2-2-2-2-2-2-2-2-2-8-8-8-8---|both 2x
PM  . .   . .   .     . .     . .   . .   . .   .

(Repeat Riff 1 2x)

Build Up
|--------------------------------------------------------------0~---|
|--------------------------------------------------------------0~---|
|--------------------------------------------------------------0~---|
|--------------------------------------------------------------0~---|
|--------------------------------------------------------------0~---|
|--------------------------------------------------------------0~---|

Breakdown 1
|--------------------------------------------------------------------|
|--------------------------------------------------------------------|
|--------------------------------------------------------------------|
|-2-2-2-2---------2-2-2-2-1-1-1-----------1-1-1-1-0-0-0-0-3-3-3-3----|
|-2-2-2-2-x-x-x-x-2-2-2-2-1-1-1-x-x-x-x-x-1-1-1-1-0-0-0-0-3-3-3-3----|
|-2-2-2-2-x-x-x-x-2-2-2-2-1-1-1-x-x-x-x-x-1-1-1-1-0-0-0-0-3-3-3-3----|4x

Build Up 2
|-------------------------------------------------------------------|
|-------------------------------------------------------------------|
|-------------------------------------------------------------------|
|-2---------------------------------------------2-1-0-2-1-0---------|
|-2-2-2-2-2-2-2-2-2-2-2-2-2-2-2-2-2-2-2-2-2-2-2-2-1-0-2-1-0---------|
|-2-2-2-2-2-2-2-2-2-2-2-2-2-2-2-2-2-2-2-2-2-2-2-2-1-0-2-1-0---------|4x
PM  . . . . . . . . . . . . . . . . . . . . . . 

Breakdown 2
|--------------------0---------------------0------------------------|
|--------------------0---------------------0------------------------|
|--------------------0---------------------0------------------------|
|-2--1--0----2--1--0----2--1--0--<3>--2--1--------------------------|
|-2--1--0----2--1--0----2--1--0--<3>--2--1--------------------------|
|-2--1--0----2--1--0----2--1--0--<3>--2--1--------------------------|2x

|-------------------------------------------------------------------|
|-------------------------------------------------------------------|
|---------------------0~--------------------------------------------|
|-2--1--0----2--1--0--0~-----------------------------------2--1--0--|
|-2--1--0----2--1--0--0~-----------------------------------2--1--0--|
|-2--1--0----2--1--0--0~-----------------------------------2--1--0--|2x
Tap to rate this tab
 
# A B C D E F G H I J K L M N O P Q R S T U V W X Y Z