Song name
# A B C D E F G H I J K L M N O P Q R S T U V W X Y Z

Beast - On Rainy Days tab

This does not belong to me, I wanted to share this.
Thanks to Shen030 on Youtube


Intro
E--3-------3---5--6--5---3----3--1--1----1-----------6-----------------------------|
B--3----3----------------------------------------3---4-----4---1-----1----4--6--4--|
G--0--0---------------------------------3--3-----------------------2---------------|
D---------------3----------1--1----------------------------------------------------|
A------------------------------------------------------3----------0---------3------|
E--3-------------------------------------------------------------------------------|

E--------5-----3--------3----5--6--5---3-----3--1---1----1---------6------------------|
B---3----------3------3---------------------------------------------4-----4--1--------|
G--------------0---0------------------------------------3--3---3-----------------3-2--|
D---0-------------------------3----------1--1-----------------------------------------|
A---------------------------------------------------------------------3--------0------|
E--------------3----------------------------------------------------------------------|

E----------3-----6--|
B--------3----------|
G-----0-------------|
D-------------------|
A-------------------|
E---3---------------|

Verse 1
E--3-------3---5--6--5---3----3--1--1----1-----------6-----------------------------|
B--3----3----------------------------------------3---4-----4---1-----1----4--6--4--|
G--0--0---------------------------------3--3-----------------------2---------------|
D---------------3----------1--1----------------------------------------------------|
A------------------------------------------------------3----------0----------3-----|
E--3-------------------------------------------------------------------------------|

E--------5-----3--------3----5--6--5---3-----3--1---1----1---------6-----------------|
B---3----------3------3---------------------------------------------4-----4--1-------|
G--------------0---0------------------------------------3--3---3----------------3-2--|
D---0-------------------------3----------1--1----------------------------------------|
A---------------------------------------------------------------------3--------0-----|
E--------------3---------------------------------------------------------------------|

E----------3-----3--|
B--------3----------|
G-----0-------------|
D-------------------|
A-------------------|
E---3---------------|

Verse 2
E--3-------3---5--6--5---3----3--1--1----1----------6------------------------------|
B--3----3----------------------------------------3---4-----4---1-----1----4--6--4--|
G--0--0--------------------------------3--3------------------------2---------------|
D---------------3----------1--1----------------------------------------------------|
A------------------------------------------------------3----------0---------3------|
E--3-------------------------------------------------------------------------------|

E--------5-----3--------3----5--6--5---3-----3--1---1----1--------6--------6-------|
B---3----------3------3---------------------------------------------4-----4---4----|
G--------------0---0------------------------------------3--3---3-------------------|
D---0-------------------------3----------1--1--------------------------------------|
A---------------------------------------------------------------------3---------3--|
E--------------3-------------------------------------------------------------------|

E--8-----5--|
B-----------|
G-----------|
D--------0--|
A-----------|
E-----------|

Chorus
E--3-------3---5--6--5---3----3--1--1----1----------6------------------------------|
B--3----3----------------------------------------3---4-----4---1-----1----4--6--4--|
G--0--0--------------------------------3--3------------------------2---------------|
D---------------3----------1--1----------------------------------------------------|
A------------------------------------------------------3----------0---------3------|
E--3-------------------------------------------------------------------------------|

E--------5-----3--------3----5--6--5---3-----3--1---1----1--------6------------------|
B---3----------3------3---------------------------------------------4-----4--1-------|
G--------------0---0------------------------------------3--3---3----------------3-2--|
D---0-------------------------3----------1--1----------------------------------------|
A---------------------------------------------------------------------3--------0-----|
E--------------3---------------------------------------------------------------------|

E----------3-----3-------------------|
B--------3-------3-------------------|
G-----0----------0-------------------|
D------------------------------------|
A------------------------------------|
E---3------------3----------------3--|
Tap to rate this tab
# A B C D E F G H I J K L M N O P Q R S T U V W X Y Z