Song name
# A B C D E F G H I J K L M N O P Q R S T U V W X Y Z

Beastie Boys - Instant Death tab

INSTANT DEATH, by Beastie Boys
from "Hello Nasty"
tabbed by: Aphellias Bormatheus.

***


INTRO:

e--12-----10-----8--10--8--10----8--10--8--13--13--|
B--------------------------------------------------|
G--------------------------------------------------|
D--------------------------------------------------|
A--------------------------------------------------|
E--------------------------------------------------|


then keep on repeating this:

e---12---12-13-12-12-8------8--10--8--10----8-10-8-13---13--|
B-----------------------------------------------------------|
G-----------------------------------------------------------|
D-----------------------------------------------------------|
A-----------------------------------------------------------|
E-----------------------------------------------------------|


[2:13]:

e---2---4----5---|
B----------------|
G----------------|
D----------------|
A----------------|
E----------------|

and 

e--------------|
B--------------|
G--------------|
D---9-9--------|
A--------10----|
E--------------|

simultaneously, until



outro [3:07]:

e--12---10---|
B------------|
G------------|
D------------|   4x
A------------|
E------------|
Tap to rate this tab
# A B C D E F G H I J K L M N O P Q R S T U V W X Y Z