Song name
# A B C D E F G H I J K L M N O P Q R S T U V W X Y Z

Beastie Boys - Egg Raid On Mojo tab

Song: Egg Raid on Mojo
Artist: Beastie Boys
Album: Some Old Bullshit

Tabbed by Aaron Greene
aarongreene15@yahoo.com
email any corrections

Intro

Play this 7 times
e ---------------------------------------|
B -0-0-0-0-0-0-0-0---0-0-0---0-0-0---0-0-|
G -4-4-4-4-4-4-4-4---4-4-4---4-4-4---4-4-|
D ---------------------------------------|
A ---------------------------------------|
E ---------------------------------------|

Then this once
e ---------------------------------------|
B -0-0-0-0-0-0-0-0---0--0--0----0--0--0--|
G -4-4-4-4-4-4-4-4---12-12-12---11-11-11-|
D ---------------------------------------|
A ---------------------------------------|
E ---------------------------------------|

Play this twice
e -------------------------|
B -------------------------|
G -4-4-4-------7-7-7-------|
D -4-4-4-5-5-5-7-7-7-7-7-7-|
A -2-2-2-5-5-5-5-5-5-7-7-7-|
E -------3-3-3-------5-5-5-|

This once
e ------------------------|
B ------------------------|
G -4--2--4--2--4--2--4--2-|
D -4--2--4--2--4--2--4--2-|
A -2--0--2--0--2--0--2--0-|
E ------------------------|

This again twice
e -------------------------|
B -------------------------|
G -4-4-4-------7-7-7-------|
D -4-4-4-5-5-5-7-7-7-7-7-7-|
A -2-2-2-5-5-5-5-5-5-7-7-7-|
E -------3-3-3-------5-5-5-|

This once
e -------------------------------------------------------------|
B -------------------------------------------------------------|
G ----7-----9-----7-----9-----7-----9--11-11-11-11-11-11-11-11-|
D -5--7--7--9--5--7--7--9--5--7--7--9--11-11-11-11-11-11-11-11-|
A -5--5--7--7--5--5--7--7--5--5--7--7--9--9--9--9--9--9--9--9--|
E -3-----5-----3-----5-----3-----5-----------------------------|

This again twice
e -------------------------|
B -------------------------|
G -4-4-4-------7-7-7-------|
D -4-4-4-5-5-5-7-7-7-7-7-7-|
A -2-2-2-5-5-5-5-5-5-7-7-7-|
E -------3-3-3-------5-5-5-|

This part twice, different rhythm here
e -------------------------|
B -------------------------|
G -444-4-------777-7-------|
D -444-4-555-5-555-5-777-7-|
A -222-2-555-5-555-5-555-7-|
E -------333-3-------555-5-|

Outro
Play twice
e -------------------------------------|
B -0-00-0---0-00-0---0-00-0---0--0--0--|
G -4-44-4---4-44-4---4-44-4---12-12-11-|
D -------------------------------------|
A -------------------------------------|
E -------------------------------------|

Then this once to end it
e -----------------------|
B -----------------------|
G -4--2--4--2--4--2----4-|
D -4--2--4--2--4--2----4-|
A -2--0--2--0--2--0----2-|
E -----------------------|
Tap to rate this tab
# A B C D E F G H I J K L M N O P Q R S T U V W X Y Z