Song name
# A B C D E F G H I J K L M N O P Q R S T U V W X Y Z

Beastie Boys - No Sleep Till Brooklyn tab

----------------------------------------------------------------------------
	        No Sleep Till Brooklyn - Beastie Boys
----------------------------------------------------------------------------
Tabbed by: Dennis Raymond
Email: 1dennis@midmaine.com

Tuning:  standard

sorry no solo
**************************
intro: "No sleep till..."


main riff
E|---------------------------------------------|
B|---------------------------------------------|
G|---------------------------------------------|
D|-0-0---3-5----7-3----------------------------| X2
A|-0-0---3-5----7-3----------------------------|
E|---------------------------------------------|

"Brooklyn!"

main riff
E|---------------------------------------------|
B|---------------------------------------------|
G|---------------------------------------------|
D|-0-0---3-5----7-3----------------------------| X2
A|-0-0---3-5----7-3----------------------------|
E|---------------------------------------------|
Foot on the pedal - never ever false metal
Engine running hotter than a boiling kettle
E|--------------------------------|
B|--------------------------------|
G|--------------------------------|
D|-0-0----------------------------|
A|-0-0----------------------------|
E|--------------------------------|
My job's ain't a job - it's a damn good time
City to city - I'm running outta ryhmyes
E|--------------------------------|
B|--------------------------------|
G|--------------------------------|
D|-7-3--0-0-----------------------|
A|-7-3--0-0-----------------------|
E|--------------------------------|
On location - touring around the nation
Beastie Boys always on vacation
E|--------------------------------|
B|--------------------------------|
G|--------------------------------|
D|-0-0----------------------------|
A|-0-0----------------------------|
E|--------------------------------|
Itchy trigger finger but a stable turntable
I do what I do best because I'm illing and able
E|--------------------------------|
B|--------------------------------|
G|--------------------------------|
D|-7-3--0-0-----------------------|
A|-7-3--0-0-----------------------|
E|--------------------------------|
Ain't no faking - your money I'm taking
Going coast to coast - watching all the girlies shaking
E|--------------------------------|
B|--------------------------------|
G|--------------------------------|
D|-0-0----------------------------|
A|-0-0----------------------------|
E|--------------------------------|
While you're at the job working nine to five
The Beastie Boys at the Garden - cold kickin' it live

Bridge "No Sleep Till..."
E|---------------------------------------------|
B|---------------------------------------------|
G|---------------------------------------------|
D|-0-0---3-5----7-3----------------------------| X2
A|-0-0---3-5----7-3----------------------------|
E|---------------------------------------------|

Our manager's crazy - he always smokes dust
He's got his own room at the back of the bus
E|--------------------------------|
B|--------------------------------|
G|--------------------------------|
D|-0-0----------------------------|
A|-0-0----------------------------|
E|--------------------------------|
Tour around the world - you rock around the clock
Plane to hotel - girls on the jock
E|--------------------------------|
B|--------------------------------|
G|--------------------------------|
D|-7-3--0-0-----------------------|
A|-7-3--0-0-----------------------|
E|--------------------------------|
We're thrashing hotels like it's going out of style
Getting paid along the way cause it's worth your while
E|--------------------------------|
B|--------------------------------|
G|--------------------------------|
D|-0-0----------------------------|
A|-0-0----------------------------|
E|--------------------------------|
Four on the floor - Adrock's out the door
M.C.A.'s in the back because he's skeezin' with a whore
E|--------------------------------|
B|--------------------------------|
G|--------------------------------|
D|-0-0----------------------------|
A|-0-0----------------------------|
E|--------------------------------|
We got a safe in the trunk with money in a stack
With dice in the front and Brooklyn's in the back
E|--------------------------------|
B|--------------------------------|
G|--------------------------------|
D|-0-0----------------------------|
A|-0-0----------------------------|
E|--------------------------------|
(play bridge)

chorus
E|----------------------------------|
B|----------------------------------|
G|----------------------------------|
D|-0--3--5-7-5---0--3--5-7-5-0------|hold the last note for start of verse
A|-0--3--5-7-5---0--3--5-7-5-0------|
E|----------------------------------|
Ain't seen the light since we started this band
M.C.A. - get on the mic my man
E|--------------------------------|
B|--------------------------------|
G|--------------------------------|
D|-0-0----------------------------|
A|-0-0----------------------------|
E|--------------------------------|
Born and bred Brooklyn - U.S.A.
They call me Adam Yauch - but I'm M.C.A.
Like a lemon to a lime - a lime to a lemon
I sip the def ale with all the fly women
E|--------------------------------|
B|--------------------------------|
G|--------------------------------|
D|-0-0----------------------------|
A|-0-0----------------------------|
E|--------------------------------|
Got limos, arena, TV shows
Autograph pictures and classy hoes
E|--------------------------------|
B|--------------------------------|
G|--------------------------------|
D|-0-0----------------------------|
A|-0-0----------------------------|
E|--------------------------------|
Step off homes - get out of my way
Taxing little girlies from here to L.A.
E|--------------------------------|
B|--------------------------------|
G|--------------------------------|
D|-0-0----------------------------|
A|-0-0----------------------------|
E|--------------------------------|
Waking up before I get to sleep
Cause I'll be rocking this party eight days a week

(play bridge)

Play chorus a few times)

There, my first good tab.  Please rate and comment.
Tap to rate this tab
 
# A B C D E F G H I J K L M N O P Q R S T U V W X Y Z