Song name
# A B C D E F G H I J K L M N O P Q R S T U V W X Y Z

Beastie Boys - Girls tab

                           Girls- THe Beastie Boys
Superkisseler

Intro:
e|-------------------------------------------------------------------------|
B|-------------------------------------------------------------------------|
G|-------------------------------------------------------------------------|
D|----3-3-----3---------3--3------3----------3-3------3----2-3-------------|
A|---3----3-3---3----3-------3-3-----3----3------3-3----3------------------|
E|-3-----------------------------------------------------------------------|


Verse:
e|---------------------------------------------------------------------------|
B|---------------------------------------------------------------------------|
G|---------------------------------------------------------------------------|
D|----3-3-----3-------------------------------3-3------3---------------------|
A|---3----3-3---3-------4--4------4--4-----3-------3-3---3-------------------|
E|-3-----------------5--------5-5------5-------------------------------------|
Tap to rate this tab
 
# A B C D E F G H I J K L M N O P Q R S T U V W X Y Z