Song name
# A B C D E F G H I J K L M N O P Q R S T U V W X Y Z

Beastie Boys - You Gotta Fight For Your Right To Party tab

You Gotta Fight (For your Right To Party) Tab by UHF10
Tune Half step down (Eb, Ab, Db, Gb, Bb, Eb)
Main Riff:
e|---------------------------------------------------------------------------|
B|---------------------------------------------------------------------------|
G|---------------------5-7-----5-7-------------------------------------------|
D|--7----------------7-5-7-7-7-5-7-------------------------------------------|
A|--7--(---ring-out)-7-3-5-7-7-3-5-------------------------------------------|
E|5-5----------------5-----5-5-----------------------------------------------|
  x
verse
e|---------------------------------------------------------------------------|
B|---------------------------------------------------------------------------|
G|----------------------5-7------5-7-----------------------------------------|
D|-7-7-7-7-7-7-7-7-7--7-5-7-7-7--5-7-----------------------------------------|
A|-7-7-7-7-7-7-7-7-7--7-3-5-7-7--3-5-----------------------------------------|
E|-5-5-5-5-5-5-5-5-5--5-----5-5----------------------------------------------|
   x x x x x x x x x

Chorus
e|---------------------------------------------------------------------------|
B|---------------------------------------------------------------------------|
G|-7-7-----7-7---------------------------------------------------------------|
D|-7-7-----7-7---------------------------------------------------------------|
A|-5-5-----5-5---------------------------------------------------------------|
E|---------------------------------------------------------------------------|


Bridge
e|---------------------------------------------------------------------------|
B|---------------------------------------------------------------------------|
G|---------------------------------------------------------------------------|
D|---------------------------------------------------------------------------|
A|-2-2-2-2-2-2---------------------------------------------------------------|
E|-0-0-0-0-0-0-3b-1/4--------------------------------------------------------|

Solo
e--15--15--15b16--15--12------------------------------------------------------|
B-------------------------15--14b16--14--15-----------------------------------|
G----------------------------------------------------13--13-16b18r16--14------|
D--------------------------------------------12--14---------------------------|
A-----------------------------------------------------------------------------|
E-----------------------------------------------------------------------------|

e--16b17--16--14--12b13r12--14--16--17--|
B---------------------------------------|
G---------------------------------------|
D---------------------------------------|
A---------------------------------------|
E---------------------------------------|


| /  slide up
| \  slide down
| h  hammer-on
| p  pull-off
| ~  vibrato
| +  harmonic
| x  Mute note
===============================================================================
Tap to rate this tab
# A B C D E F G H I J K L M N O P Q R S T U V W X Y Z