Beastie Boys - So Whatcha Want tab

Really easy / really repetitive song that no ones tabbed correctly till now

Drop D Tuning:

|--------------------------|
|--------------------------|
|--------------------------|  <---- Played throughout verses
|-0-0----0-0----0-0----0-0-|
|-0-0----0-0----0-0----0-0-|
|-0-0----0-0----0-0----0-0-|


|--11~--------------------11~---|
|--14b~r--14-11-14-11-14--14b~r-|
|-------------------------------|  <---- Played throughout chorus
|-------------------------------|
|-------------------------------|
|-------------------------------|


Tab Key:

~ = Hold Note
b = Bend Note
r = Release Note

                        <<<---------------------------->>>
                        <<<---------------------------->>>
                        <<<-------californiacane------->>>
                        <<<---------------------------->>>
                        <<<---------------------------->>>

                              Get Back Here Johnny!
                                     *RHCP*
Tap to rate this tab
 
# A B C D E F G H I J K L M N O P Q R S T U V W X Y Z