Song name
# A B C D E F G H I J K L M N O P Q R S T U V W X Y Z

Beastie Boys - Brass Monkey tab

E-----------------------------------------------------------------|
B-----------------------------------------------------------------|
G-----------------------------------------------------------------|
A----1--1---------1---1---1-1-----1--1------1--1------------------|
D-----------------------------------------------------------------|
E-----------------------------------------------------------------|

Play along with the song to get the beat.


E----------11--------------------11---------------11--------------|
B------4-------4-----------4-4-------4-------4--------4-----------|
G-----------------------------------------------------------------|
A---1-------------1----------------------1----------------1-------|
D-----------------------------------------------------------------|
E-----------------------------------------------------------------|

Rock on
Tap to rate this tab
 
# A B C D E F G H I J K L M N O P Q R S T U V W X Y Z