Song name
# A B C D E F G H I J K L M N O P Q R S T U V W X Y Z

Beastie Boys - Holy Snappers tab

Verse Riff
E---------------------------------------------------|
B---------------------------------------------------|
G---------------------------------------------------|
D---5--5--5--5--6--6--6--6--5--5--5--5--2--2--2--2--|
A---5--5--5--5--6--6--6--6--5--5--5--5--2--2--2--2--|
E---3--3--3--3--4--4--4--4--3--3--3--3--0--0--0--0--|

Bridge
E---------------------------------------------------|
B---------------------------------------------------|
G---9--9--9--9--10-10-10-10-11-11-11-11-7--7--7--7--|
D---9--9--9--9--10-10-10-10-11-11-11-11-7--7--7--7--|
A---7--7--7--7--8--8--8--8--9--9--9--9--5--5--5--5--|
E---------------------------------------------------|

Outro
E----------------------------------------------------------X-|
B----------------------------------------------------------X-|
G----------------------------------------------------------X-|
D--5--5--5--5--6--6--6--6--5--5--5--5--3---3---3---3-3-3-5-X-|
A--5--5--5--5--6--6--6--6--5--5--5--5--3---3---3---3-3-3-5-X-|
E--3--3--3--3--4--4--4--4--3--3--3--3--1---1---1---1-1-1-3-X-|

Intro (Random Harmonics)
Verse  x4
Bridge x4
Verse  x4
Bridge x4
Verse  x3
Outro  x1
Tap to rate this tab
# A B C D E F G H I J K L M N O P Q R S T U V W X Y Z