Song name
# A B C D E F G H I J K L M N O P Q R S T U V W X Y Z

Beastie Boys - Beastie Boys tab

Riff 1
E------------------|
B------------------|
G------------------|
D--9-9-9-9-7-7-7-7-|
A--9-9-9-9-7-7-7-7-|
E--7-7-7-7-5-5-5-5-|

Riff 2
E------------------|
B------------------|
G--9-9-9-9-7---7---|
D--9-9-9-9-7-9-7-9-|
A--7-7-7-7-5-9-5-9-|
E------------7---7-|

Riff 3
E----------------------------------|
B----------------------------------|
G----------------------------------|
D--4-4-4-4-5-5-5-5-6-6-6-6-7-7-7-7-|
A--4-4-4-4-5-5-5-5-6-6-6-6-7-7-7-7-|
E--2-2-2-2-3-3-3-3-4-4-4-4-5-5-5-5-|

Solo
E--------------------------------------------------|
B--------------------------------------------------|
G--------------------------------------------------|
D--x-4-4-4-5-5-5-5-6-6-6-6-7-7-7-7-8-8-8-8-9-9-9-9-|
A--------------------------------------------------|
E--------------------------------------------------|

E--------------------------------------------------|
B--------------------------------------------------|
G--------------------------------------------------|
D--10-10-10-10-11-11-11-11-12-12-12-12-13-13-13-13-|
A--------------------------------------------------|
E--------------------------------------------------|

E--------------------------|
B--------------------------|
G--------------------------|
D--14-14-14-14-15-15-15-15-|
A--------------------------|
E--------------------------|

Riff 1 x4
Riff 2 x2
Riff 1 x2
Riff 3 x1
Riff 1 x4
Riff 2 x2
Riff 1 x2
Riff 3 x1
Solo   x1
Riff 1 x4
Riff 2 x2
Riff 1 x2
Riff 3 x1
Tap to rate this tab
 
# A B C D E F G H I J K L M N O P Q R S T U V W X Y Z