Song name
# A B C D E F G H I J K L M N O P Q R S T U V W X Y Z

Beastie Boys - Pass The Mic tab

------------
Pass The Mic
------------
from Beastie Boys album "Check Your Head"
tab by Matt Clark, Matt.Clark@umit.maine.edu


 This part is just a little riff played a few times in the song

 Guitar
|----------------------------------------------------------------------|
|----------------------------------------------------------------------|
|----------------------------------------------------------------------|
|----------------------------------------------------------------------|
|-7h5------------------------------------------------------------------|
|-----7-3--4-----------------------------------------------------------|

h means hammer-on

 This is played when MCA sings sometimes

 Bass
|-----4-------7------10-------------------------------------------------|
|---4-------7-----------------------------------------------------------|
|-2------2/5-----5/8----------------------------------------------------|
|-----------------------------------------------------------------------|

/ is a slide
Tap to rate this tab
# A B C D E F G H I J K L M N O P Q R S T U V W X Y Z