Song name
# A B C D E F G H I J K L M N O P Q R S T U V W X Y Z

Beastie Boys - Fight For Your Right To Party tab

Tuning: EADGBe

Intro
|-6~--------------------|
|-6~--------------------|
|-4~--------------------|

|-------4--6------------|
|-6--6--4--6------------|  X 7
|-6--6--2--4------------|
|-4--4------------------|

|-------4------|
|-6--6--4--4---|
|-6--6--2--4---| X 1
|-4--4-----2---|

Verse 
(Palm Muted)
|----------------------------------------4--6----------4--6-|
|----------------------------------6--6--4--6----6--6--4--6-| x 4
|-6-6-6-6-6-6-6-6-6-6-6-6-6-6-6-6--6--6--2--4----6--6--2--4-|
|-4-4-4-4-4-4-4-4-4-4-4-4-4-4-4-4--4--4----------4--4-------|

CHORUS
You've gotta fight... For your right...          To party...
|-----------------6--6------------------*66-66-6*-------4--6--------4--6-|
|-----------------6--6------------------*66-66-6*-6--6--4--6--6--6--4--6-|
|-----------------4--4------------------*44-44-4*-6--6--2--4--6--6--2--4-|
|-------------------------------------------------4--4--------4--4-------|

BRIDGE
|-------4--6--------4-----|
|-6--6--4--6--6--6--4--4--|
|-6--6--2--4--6--6--2--4--| X 1
|-4--4--------4--4-----2--|

I haven't figured out the solo yet; this is all I have.
Tap to rate this tab
 
# A B C D E F G H I J K L M N O P Q R S T U V W X Y Z