Song name
# A B C D E F G H I J K L M N O P Q R S T U V W X Y Z

Beastie Boys - You Gotta Fight For Your Right To Party tab

-------------------------------------------------------------------------------
			     You gotta fight - Beastie Boys
-------------------------------------------------------------------------------
Tabbed by:Phillip
Email:Cheetaclawsfl@yahoo.com

Tuning:1/2 step down

Update:Got the Chorus and the solo.  I'd Also like to point out that the tuning is half 
down.


e|---------------------------------------------------------------------------|
B|---------------------------------------------------------------------------|
G|---------------------5-7-----5-7-------------------------------------------|
D|--7----------------7-5-7-7-7-5-7-------------------------------------------|
A|--7-(let-ring-out)-7-3-5-7-7-3-5-------------------------------------------|
E|5-5----------------5-----5-5-----------------------------------------------|
  x
verse
e|---------------------------------------------------------------------------|
B|---------------------------------------------------------------------------|
G|----------------------5-7------5-7-----------------------------------------|
D|-7-7-7-7-7-7-7-7-7--7-5-7-7-7--5-7-----------------------------------------|
A|-7-7-7-7-7-7-7-7-7--7-3-5-7-7--3-5-----------------------------------------|
E|-5-5-5-5-5-5-5-5-5--5-----5-5----------------------------------------------|
   x x x x x x x x x

Chorus
e|---------------------------------------------------------------------------|
B|---------------------------------------------------------------------------|
G|-7-7-----7-7---------------------------------------------------------------|
D|-7-7-----7-7---------------------------------------------------------------|
A|-5-5-----5-5---------------------------------------------------------------|
E|---------------------------------------------------------------------------|

Then Go Back To main Riff

Bridge
e|---------------------------------------------------------------------------|
B|---------------------------------------------------------------------------|
G|---------------------------------------------------------------------------|
D|---------------------------------------------------------------------------|
A|-2-2-2-2-2-2---------------------------------------------------------------|
E|-0-0-0-0-0-0-3b-1/4--------------------------------------------------------|

Solo
e|-15~--------------17-----------------------------------------20-19-17--------------|
B|-----17-17-19------------------------------13-15-13-15b-15b-----------20-17-20-20b-|
G|-----17-17-19-19-----19b----------12h13h14-----------------------------------------|
D|-------------------------12h13h14--------------------------------------------------|
A|-----------------------------------------------------------------------------------|
E|-----------------------------------------------------------------------------------|





| /  slide up
| \  slide down
| h  hammer-on
| p  pull-off
| ~  vibrato
| +  harmonic
| x  Mute note
===============================================================================
Tap to rate this tab
 
# A B C D E F G H I J K L M N O P Q R S T U V W X Y Z