Song name
# A B C D E F G H I J K L M N O P Q R S T U V W X Y Z

Beastie Boys - Transitions tab

Help us improve GuitareTab! Take a short survey!
-------------------------------------------------------------------------------
			     Transitions - Beastie Boys
-------------------------------------------------------------------------------
This is the bass and keyboard transcribed for guitar (all at once). Sorry, no rhythm is indicated.

Tabbed by: jjones46

Tuning: E (capo 3 for easier fingering)

E|---------------------------------------------------------------------------|
B|------------------------------------------------------------3--------------|
G|--3h5--3--------3------5--3--3----------3h5--3--------3-------5-5----------|
D|--5-------3--5-----5------------5--5----3-------3--5-----5--------3-3------|
A|-------------------3------------------5------------------3-------------3-5-|
E|--3------------------------------------------------------------------------|



E|---------------------------------------------------------------------------|
B|-------------------3-----3-----3------3-----3-----3------3-----3-----3-----|
G|--3h5--3--------3-----5-----5-----5------5-----5-----5------5-----5-----5--|
D|----------3--5-------------------------------------------------------------|
A|--6----------------5--------------5---3--------------3---------------------|
E|---------------------------------------------------------6--------------6--|


E|-----------------------------------------|
B|--3-----3-----3--------------------------|
G|-----5-----5-----5-----------------------|
D|---------------------------------------5-|
A|-------------------3-4-5---------3--3----|
E|--4--------------4-----------3-6-------3-|
Related for Transitions tab