Beasts Of Bourbon - Ten Wheels For Jesus tab

-------------------------------------------------------------------------------
			     TEN WHEELS FOR JESUS - Beasts Of Bourbon
-------------------------------------------------------------------------------
Tabbed by: Wally Funk	(No association with the band)
Email: preshrunk@bigpond.com


www.texperkins.net
www.myspace.com/beastsofbourbon

Tuning: Standard

                                   x2
e|----------------------------------------|
B|----------------------------------------|
G|----------------------------------------|
D|----------------------------------------|
A|----------------2-4--2--2-4-2---2-------|
E|-0-000-0-00-0-4---------------4---------|

                                   x1
e|----------------------------------------|
B|----------------------------------------|
G|----------------------------------------|
D|----------------2-4--2--2-4-2---2-------|
A|-0-000-0-00-0-4---------------4---------|
E|----------------------------------------|

                                   x1
e|----------------------------------------|
B|----------------------------------------|
G|----------------------------------------|
D|----------------------------------------|
A|----------------2-4--2--2-4-2---2-------|
E|-0-000-0-00-0-4---------------4---------|

                                   x1
e|----------------------------------------|
B|----------------------------------------|
G|----------------------------------------|
D|----------------4-6--4--4-6-4---4-------|
A|-2-222-2-22-2-6---------------6---------|
E|----------------------------------------|

                                   x1
e|----------------------------------------|
B|----------------------------------------|
G|----------------------------------------|
D|----------------------------------------|
A|----------------2-4--2--2-4-2---2-------|
E|-0-000-0-00-0-4---------------4---------|


**********************************************
Tap to rate this tab
 
# A B C D E F G H I J K L M N O P Q R S T U V W X Y Z