Beasts Of Bourbon - Make Em Cry tab

-------------------------------------------------------------------------------
			     Make Em Cry - Beasts Of Bourbon
-------------------------------------------------------------------------------
Tabbed by: Wally Funk
Email: preshrunk@bigpond.com


www.texperkins.net
www.myspace.com/beastsofbourbon


Tuning: Standard


Verse:
                            x3
e|----------------------------|
B|----------------------------|
G|--------9-9-7--7-7-7--9--7--|
D|--9--9--9-9-7--7-7-7--9--7--|
A|--9--9--7-7-5--5-5-5--7--5--|
E|--7--7----------------------|


e|-------------------|
B|-------------------|
G|-------------------|
D|--7--7----5-5-5-5--|
A|--7--7----5-5-5-5--|
E|--5--5----3-3-3-3--|


Chorus:
Listen to the song to get the rhythm..

e|----------------------|
B|----------------------|
G|--7-7-7-7-7-7-7-7-7-7-|
D|--7-7-7-7-7-7-7-7-7-7-|
A|--5-5-5-5-5-5-5-5-5-5-|
E|----------------------|


**********************************************
Tap to rate this tab
 
# A B C D E F G H I J K L M N O P Q R S T U V W X Y Z