Song name
# A B C D E F G H I J K L M N O P Q R S T U V W X Y Z

Beat Crusaders - 50 Wisdom tab

-------------------------------------------------------------------------------
			     50c Wisdom - Beat Crusaders
-------------------------------------------------------------------------------
Tabbed by: RE.[b0rn]
Email: reborn.mike@gmail.com

Tuning: Standart


Intro: x7
|-------------------------|
|-------------------------|
|-------------------------| 
|-------------------------|
|-----------------4-5-4-0-|
|-3-55-3-5-3-5--3---------|

Then
|-----------|
|-----------|
|---------5-|
|-5---3---5-| 
|-5---3---3-|
|-7---5-----|

Verse: x3
|-------------------------|
|-------------------------|
|-------------------------|
|-------------------------|
|-----------------4-5-4-0-|
|-3-55-3-5-3-5--3---------|

Then
|-----------|
|-----------|
|---------5-|
|-5---3---5-| 
|-5---3---3-|
|-7---5-----|

In the second verse you play this at the end.
|---------|
|---------|
|---------|
|-5--5--2-|
|-5--5--2-|
|-7--3--0-|

Pre-chorus: x4 ("Is there any way, is there any how, is there any word that Jhon says...")
|-----------------|
|-----------------|
|--11-11--9--11-9-| 
|--11-11--9--11-9-|
|-----------------|
|-----------------|

Chorus: x3 ("Bleeding...")
|-------------------------|
|-------------------------|
|--------55555------------| 
|--44444-55555-55555-22222|
|--44444-33335-55555-22222|
|--22222-------33333-00000|

Then
("How could I, how could I...")
|-------------------------------------|
|-------------------------------------|
|---------------55--55--55--55--55--55|
|-44444-33333---55--55--55--55--55--55|
|-44444-33333---33--33--33--33--33--33|
|-22222-11111-------------------------|

Verse: Just play the second verse :)

Pre-chorus: x4
|----------------|--------------|
|----------------|--------------|
|-11-11--9--11-9-|-11-11--9-11b-|
|-11-11--9--11-9-|-11-11--9-----|
|----------------|--------------|
|----------------|--------------|

Chorus: x3

Then
|-------------------------------------|
|-------------------------------------|
|---------------55--55--55--55--55--55|
|-44444-33333---55--55--55--55--55--55|
|-44444-33333---33--33--33--33--33--33|
|-22222-11111-------------------------|

Sorry guys no solo ~_~

|---------------------|
|---------------------|
|---------5-----------|
|-5---3---5---5--5--2-|
|-5---3---3---5--5--2-|
|-7---5-------7--3--0-|

Pre-chorus: x4
|----------------|--------------|
|----------------|--------------|
|-11-11--9--11-9-|-11-11--9-11b-|
|-11-11--9--11-9-|-11-11--9-----|
|----------------|--------------|
|----------------|--------------|

Chorus: x3

Then
|---------------------|
|---------------------|
|---------------55--55|
|-44444-33333---55--55|
|-44444-33333---33--33|
|-22222-11111---------|

Chorus: x3

Then
|-----------------|
|-----------------|
|-------------5---|
|-44444-33333-5---|
|-44444-33333-3---|
|-22222-11111-----|

P.S. I'm not sure about pre-chorus, so if know correct version please submit it =/
************************************

| b   Bend

************************************
Tap to rate this tab
# A B C D E F G H I J K L M N O P Q R S T U V W X Y Z