Song name
# A B C D E F G H I J K L M N O P Q R S T U V W X Y Z

Beat Crusaders - Cum On Feel The Noize tab

cum on feel the noize


the blue hearts


TRANSCRIBED BY RUDY GUZMAN


guzman_84@hotmail.com




                                               
e:------------------------------------------------------|
B:------------------------------------------------------|
G:------------------------------------------------------|
D:-9-9---9---10---10---10---11-11---11---10---10---10---|
A:-7-7---7---8----8----8----9--9----9----8----8----8----|
E:-----0---0----0----0----0-------0----0----0----0----0-|

e:------------------------------------------|
B:------------------------------------------|
G:------------------------------------------|
D:-9-9---9---10---10---10---11-11---11---10-|
A:-7-7---7---8----8----8----9--9----9----8--|
E:-----0---0----0----0----0-------0----0----|


e:-------------------------------|
B:-------------------------------|
G:-------------------------------|
D:-------------------------------|
A:-2--4-4-----4-4-----4-4--5-5-5-|
E:-0--2-2--0--2-2--0--2-2--3-3-3-|

e:-----------------------------------|
B:-----------------------------------|
G:-----------------------------------|
D:-----------------------------------|
A:-2--4-4-----4-4-----4-4--5-5-5--10-|
E:-0--2-2--0--2-2--0--2-2--3-3-3--8--|

e:-------------------------------------------------------|
B:-------------------------------------------------------|
G:-------------------------------------------------------|
D:-------------999999999-------------777777777--66666666-|
A:-9999999999--777777777--777777777--555555555--44444444-|
E:-7777777777-------------555555555----------------------|

e:--------------------------------------------------------------------------------------|
B:--------------------------------------------------------------------------------------|
G:--------------------------------------------------------------------------------------|
D:-------------999999999-------------777777777--66666666--------------------------------|
A:-9999999999--777777777--777777777--555555555--44444444--7-9-9-9--7-9-9-9--7-9-9-9--10-|
E:-7777777777-------------555555555-----------------------5-7-7-7--5-7-7-7--5-7-7-7--8--|

   pick slide
e:------------------------------------------------------------|
B:------------------------------------------------------------|
G:------------------------------------------------------------|
D:------------------------------------------------------------|
A:-x\---------------------------------------------------------|
E:-x\---------------------------------------------------------|


e:---------------------------------------------------------|
B:---------------------------------------------------------|
G:---------------------------------------------------------|
D:-11-11---11---11---11---11---10-10---10---10---10---10---|
A:-9--9----9----9----9----9----8--8----8----8----8----8----|
E:-------0----0----0----0----0-------0----0----0----0----0-|

e:---------------------------------------------------|
B:---------------------------------------------------|
G:---------------------------------------------------|
D:-9-9---9---9---9---9---8-8---8---8---8---8---------|
A:-7-7---7---7---7---7---6-6---6---6---6---6--9-11-9-|
E:-----0---0---0---0---0-----0---0---0---0----7-9--7-|

                                                                           x2
e:--------------------------------------------------------------------------|
B:--------------------------------------------------------------------------|
G:--------------------------------------------------------------------------|
D:-9-9--9-9-9-9-9-----------------------------------------------------------|
A:-7-7--7-7-7-7-7--9-9--9-9-9-9-9--11-11--11-11-11-11-11--7-7--7--9-9-9-9-9-|
E:-----------------7-7--7-7-7-7-7--9--9---9--9--9--9--9---5-5--5--7-7-7-7-7-|

                                x2
e:-------------------------------|
B:-------------------------------|
G:-------------------------------|
D:-------------------------------|
A:-2--4-4-----4-4-----4-4--5-5-5-|
E:-0--2-2--0--2-2--0--2-2--3-3-3-|

e:-------------------------------------------------------|
B:-------------------------------------------------------|
G:-------------------------------------------------------|
D:-------------999999999-------------777777777--66666666-|
A:-9999999999--777777777--777777777--555555555--44444444-|
E:-7777777777-------------555555555----------------------|

e:--------------------------------------------------------------------------------------|
B:--------------------------------------------------------------------------------------|
G:--------------------------------------------------------------------------------------|
D:-------------999999999-------------777777777--66666666--------------------------------|
A:-9999999999--777777777--777777777--555555555--44444444--7-9-9-9--7-9-9-9--7-9-9-9--10-|
E:-7777777777-------------555555555-----------------------5-7-7-7--5-7-7-7--5-7-7-7--8--|

   pick slide
e:------------------------------------------------------------|
B:------------------------------------------------------------|
G:------------------------------------------------------------|
D:------------------------------------------------------------|
A:-x\---------------------------------------------------------|
E:-x\---------------------------------------------------------|


e:---------------------------------------------------------|
B:---------------------------------------------------------|
G:---------------------------------------------------------|
D:-11-11---11---11---11---11---10-10---10---10---10---10---|
A:-9--9----9----9----9----9----8--8----8----8----8----8----|
E:-------0----0----0----0----0-------0----0----0----0----0-|

e:---------------------------------------------------|
B:---------------------------------------------------|
G:---------------------------------------------------|
D:-9-9---9---9---9---9---8-8---8---8---8---8---------|
A:-7-7---7---7---7---7---6-6---6---6---6---6--9-11-9-|
E:-----0---0---0---0---0-----0---0---0---0----7-9--7-|

                                                                           x2
e:--------------------------------------------------------------------------|
B:--------------------------------------------------------------------------|
G:--------------------------------------------------------------------------|
D:-9-9--9-9-9-9-9-----------------------------------------------------------|
A:-7-7--7-7-7-7-7--9-9--9-9-9-9-9--11-11--11-11-11-11-11--7-7--7--9-9-9-9-9-|
E:-----------------7-7--7-7-7-7-7--9--9---9--9--9--9--9---5-5--5--7-7-7-7-7-|


  gt2 **behind solo**
e:--------------------------------------------------------------------------------------|
B:--------------------------------------------------------------------------------------|
G:--------------------------------------------------------------------------------------|
D:------------------------9-9-9-9-9-9-9-9-----------------------------------------------|
A:-10--10-10-10-10-10-10--7-7-7-7-7-7-7-7--10--10-10-10-10-10-10--9--9---9--9-9-9-9-9-9-|
E:-8---8--8--8--8--8--8--------------------8---8--8--8--8--8--8---7--7---7--7-7-7-7-7-7-|


   solo
e:--------88888--8--10--8--10/12-----12------12-12-12-11-11-11-10-10-10-99988777666555-|
B:-5/8-8--88888-------------------12-----12--12-12-12-11-11-11-10-10-10-99988777666555-|
G:-------------------------------------------------------------------------------------|
D:-------------------------------------------------------------------------------------|
A:-------------------------------------------------------------------------------------|
E:-------------------------------------------------------------------------------------|

e:--------10---12-----------------------------------------------------7----7-------------|
B:-5/8-8-----8----8---------------------------------------------------7----7-------------|
G:-------------------11\10\9\8\7\6\5\4\3----7~~~-7-7-8~~~---8-8--9-9b---9b---9--9b-9b-9b-|
D:---------------------------------------------------------------------------------------|
A:---------------------------------------------------------------------------------------|
E:---------------------------------------------------------------------------------------|

   pick slide
e:------------------------------------------------------------|
B:------------------------------------------------------------|
G:------------------------------------------------------------|
D:------------------------------------------------------------|
A:-x\---------------------------------------------------------|
E:-x\---------------------------------------------------------|


e:------------------------------------------------------|
B:------------------------------------------------------|
G:------------------------------------------------------|
D:-9-9---9---10---10---10---11-11---11---10---10---10---|
A:-7-7---7---8----8----8----9--9----9----8----8----8----|
E:-----0---0----0----0----0-------0----0----0----0----0-|

e:------------------------------------------|
B:------------------------------------------|
G:------------------------------------------|
D:-9-9---9---10---10---10---11-11---11---10-|
A:-7-7---7---8----8----8----9--9----9----8--|
E:-----0---0----0----0----0-------0----0----|


e:--------------------------------------------------------------------------|
B:--------------------------------------------------------------------------|
G:--------------------------------------------------------------------------|
D:-9-9--9-9-9-9-9-----------------------------------------------------------|
A:-7-7--7-7-7-7-7--9-9--9-9-9-9-9--11-11--11-11-11-11-11--7-7--7--9-9-9-9-9-|
E:-----------------7-7--7-7-7-7-7--9--9---9--9--9--9--9---5-5--5--7-7-7-7-7-|


e:------------------------------------------------------------|
B:------------------------------------------------------------|
G:------------------------------------------------------------|
D:-9--------------9-------7-9-----8-9-------------------------|
A:-7--------------7-------5-7-----6-7-------------------------|
E:-------------------0-0------0-0-----------------------------|


hillo son mex

25/08/11
Tap to rate this tab
 
# A B C D E F G H I J K L M N O P Q R S T U V W X Y Z