Song name
# A B C D E F G H I J K L M N O P Q R S T U V W X Y Z

Beat Crusaders - Love Dischord tab

My favourite song from the Beat Crusaders. This is most of the song...i dont think its 
of it though.
Tabbed by J. Ramos

(Whole song has distortion)

Intro
E|-0----0--0---------0--0------------------|
B|-0--0----0--4------0----4----------------|
G|-2-------4----4----2------4--4-----------|
D|-2-------6------4--4---------6---4-4-6-6-|
A|-0-------------------------------4-4-6-6-|
E|---------------------------------2-2-4-4-|

E|---4-2-0---4-2-4-2-0---4-2-0---4-2-4-2-0---4-2-0---4-2-4-2-0---4---------|
B|-2-------2-----------0-------0-------------------------------------------|
G|-----------------------------------------2-------2-----------1-----------|
D|-----------------------------------------------------------------4-4-6-6-|
A|-----------------------------------------------------------------4-4-6-6-|
E|-----------------------------------------------------------------2-2-4-4-|

Verse 1   (play 3x)
E|---------------------------------|---------------|
B|---------------------------------|---------------|
G|---------------------------------|---------------|
D|-4-4-4-4-4-4-4-4-6-6-6-6-6-6-6-6-|-4-----4-4-6-6-|
A|-4-4-4-4-4-4-4-4-6-6-6-6-6-6-6-6-|-4-----4-4-6-6-|
E|-2-2-2-2-2-2-2-2-4-4-4-4-4-4-4-4-|-2-----2-2-4-4-|

          (play 3x)
E|---------------------------------|---------------|
B|---------------------------------|---------------|
G|---------------------------------|---------------|
D|-4-4-4-4-4-4-4-4-6-6-6-6-6-6-6-6-|-4-----4-4-6-6-|
A|-4-4-4-4-4-4-4-4-6-6-6-6-6-6-6-6-|-4-----4-4-6-6-|
E|-2-2-2-2-2-2-2-2-4-4-4-4-4-4-4-4-|-2-----2-2-4-4-|

Chorus
E|---4-2-0---4-2-4-2-0---4-2-0---4-2-4-2-0---4-2-0---4-2-4-2-0---4-3/7-8-9-|
B|-2-------2-----------0-------0-------------------------------------------|
G|-----------------------------------------2-------2-----------1-----------|
D|-------------------------------------------------------------------------|
A|-------------------------------------------------------------------------|
E|-------------------------------------------------------------------------|

E|---4-2-0---4-2-4-2-0---4-2-0---4-2-4-2-0---4-2-0---4-2-4-2-0---4---------|
B|-2-------2-----------0-------0-------------------------------------------|
G|-----------------------------------------2-------2-----------1-----------|
D|-----------------------------------------------------------------4-4-6-6-|
A|-----------------------------------------------------------------4-4-6-6-|
E|-----------------------------------------------------------------2-2-4-4-|

Verse 2   (play 3x)
E|---------------------------------|---------------|
B|---------------------------------|---------------|
G|---------------------------------|---------------|
D|-4-4-4-4-4-4-4-4-6-6-6-6-6-6-6-6-|-4-----4-4-6-6-|
A|-4-4-4-4-4-4-4-4-6-6-6-6-6-6-6-6-|-4-----4-4-6-6-|
E|-2-2-2-2-2-2-2-2-4-4-4-4-4-4-4-4-|-2-----2-2-4-4-|

          (play 3x)
E|-4-4-4-4-4-4-7-7-7-7-7-|---------------|
B|-5-5-5-5-5-5-7-7-7-7-7-|---------------|
G|-----------------------|---------------|
D|-----------------------|-4-----4-4-6-6-|
A|-----------------------|-4-----4-4-6-6-|
E|-----------------------|-2-----2-2-4-4-|

Chorus

This is all i know for now...ill update it later on when i figure it out. Sry guys! :(
Tap to rate this tab
# A B C D E F G H I J K L M N O P Q R S T U V W X Y Z