Song name
# A B C D E F G H I J K L M N O P Q R S T U V W X Y Z

Beat Crusaders - Second That Emotion tab

well as you know my pinky was Cut really bad
in my cooking class, real bad. if you want, ill send you the
picture of the cut. if yes - my email - Drummerdirtydee@yahoo.com

Beat Crusaders
second that emotion


.= palm mute
/= slide
^v= up and down strokes(v=up/^down)

Intro:

"you better knock me Out"

guitar 1                 play guitar 1and2 2 times
|-----------------------------------------------------------|
|-----------------------------------------------------------|
|---------9-99-9-99-9-111111111111--------------------------|
|-7-77777-9-99-9-99-9-111111111111-11111111111111-----------|
|-7-77777-7-77-7-77-7-9-9-9-9-9-9--11111111111111-----------|
|-5-55555--------------------------9-9-9-9-9-9-9------------|
    .....   ..   ..     . . .   .    . .   . .

when theres not dots under the notes, no plam mute.
anyways

guitar 2
|-----------------------v9--9--9--9--9--9--9--9--9--9--9--9--------|
|--------v9-99-v9-99-v9-v10-10-10-10-10-9--9--9--9--9--9--9--------|
|--------v9-99-v9-99-v9-v11-11-11-11-11-10-10-10-10-10-10 10-------|
|7-77777-v9-99-v9-99-v9-----------------11-11-11-11-11-11-11-------|
|7-77777-----------------------------------------------------------|
|5-55555-----------------------------------------------------------|
   .....    ..   ..         .  .  .        .  .     .  .


0:11 "i dont care"
guitar1
|--------------------------------------------------------------|
|--------------------------------------------------------------|
|-44-44--2-2-22----------------2-44-44--2-2-22-6-7-6-4-2-9-----|
|-44-44--2-2-22---44-44-2-2-22-2-44-44--2-2-22-6-7-6-4-2-9-----|
|-22-22--0-0-00---44-44-2-2-22-0-22-22--0-0-00-4-5-4-2-0-7-----|
|---------------0-22-22-0-0-00---------------------------------|

guitar2
|------------------------------------------------------|
|------------------------------------------------------|
|-------------------------11---11-------13-------------|
|----9----9-----7----7---------------------------------|
|-----------------------99--99----11-11-----11-11------|
|-77---77---5-5---55-----------------------------------|
if you can try to hear this part out, then you
can get it easy

0:22
"i dont care"
guitar 1
|--------------|----------------------------------|
|--------------|----------------------------------|
|-7-----999-11-|-7-----999-11---------------------|
|-7-77--999-11-|-7-77--999-1111-9-99999999--------|
|-5-77--777/9--|-5-77--777/9-11-9-99999999--------|
|---55---------|---55--- ----9--7-77777777--------|
      ^ 2X v                      ........

|---5-5--------9-------------------------------|
|-7-5-5--9-9-9-10------------------------------|
|-7-6-6--9-9-9-11------------------------------|
|-7-5-5--9-9-9---------------------------------|
|-5-7-7----------------------------------------|
|---5-5----------------------------------------|

GO back to the Intro
untill you reach the time

1:03
"you better get me out"
|-------------------------------------------|
|-------------------------------------------|
|-------------------------------------------|
|-7--4-5------------------------------------|
|-7--4-5------------------------------------|
|-5--2/3------------------------------------|
play this part 7 times
untill you reach the time
1:20
|---------------------|
|---------------------|
|--6---7-6-4-2-9------|
|--6---7-6-4-2-9------|
|--4---5-4-2-0-7------|
|---------------------|

"give me the judgment"
|---------------------|---------------------|
|---------------------|---------------------|
|-8------101010-12----|---------------------|
|-8-88---101010-12----|-1210--101010101010--|
|-6-88----8-8-8/10----|-1210--101010101010--|
|---66----------------|-10-8--8-8-8-8-8-8---|
                              . . . . . .
after the third time, the ending gose like this


"YOU NEVER GET ME down"

|----------------------|
|----------------------|
|----------------------|
|---------8------------|
|---------8------------|
|---------6------------|


yea...thats right
 ok well-ah, ima go tend to my
pinky cut.

Rusty S.
Tap to rate this tab
# A B C D E F G H I J K L M N O P Q R S T U V W X Y Z