Song name
# A B C D E F G H I J K L M N O P Q R S T U V W X Y Z

Beat Happening - In Between tab

Intro

---------------------------------------------------------------|
---------------------------------------------------------------|
---------------------------------------------------------------|
--4-4-4-4-4-4--------------------------------------------------|
--4-4-4-4-4-4--------------------------------------------------|
--2-2-2-2-2-2--------------------------------------------------|

Main (and only) Riff

---------------------------------------------------------------------|
---------------------------------------------------------------------|
-------4-4---4-4-4------4-4---4-4-4----------------------------------|
--4----4-4---4-4-4--4---4-4---4-4-4----------------------------------|
--4----2-2---2-2-2--4---2-2---2-2-2----------------------------------|
--2-----------------2------------------------------------------------|


Very easy tab, this is my first tab, I put it up since there are no other versions on 
internet that I could find.  Would love some commentary/corrections on this, as I am quite 
to both tabbing and guitar (almost a year).  P.S. Beat Happening rules.
Tap to rate this tab
# A B C D E F G H I J K L M N O P Q R S T U V W X Y Z