Song name
# A B C D E F G H I J K L M N O P Q R S T U V W X Y Z

Beat Happening - Bad Seeds tab

Main Riff-

E|--------------------------------------------------|
B|--------------------------------------------------|
G|--------------------------------------------------|
D|--------------------------------------------------|
A|--------------------------------------------------|
E|--0--3--5--5--5--5--6--6--6--5--5--3--0--3--5--0--|


Chorus:
I'm not exactly sure
E chord
A chord
and then this
E|--------------|
B|--------------|
G|--7--9--7--9--|
D|--7--9--7--9--|
A|--5--5--5--5--|
E|--------------|

Pretty sure the chorus is wrong but the main riff is right.
Tap to rate this tab
 
# A B C D E F G H I J K L M N O P Q R S T U V W X Y Z