Song name
# A B C D E F G H I J K L M N O P Q R S T U V W X Y Z

Beat Happening - Fortune Cookie Prize tab

-------------------------------------------------------------------------------
                             Fortune Cookie Prize - Beat Happening
-------------------------------------------------------------------------------
Tabbed by:Polkahere



Main Riff:
                           D    C    G
e|-------------------------2----0----3--------------|
B|-------------------------3----1----0--------------|
G|-------------------------2----0----0--------------|
D|-------------------------0----2----0--------------|
A|2-2-2-2-2-2-2-3-0--------x----3----2--------------|
E|-------------------------x----x----3--------------|



Chorus :

G           D
Climb high, climb high
Em                           C
You're my fourtune cookie prize
G           D
Climb high, climb high
Em                           C
You're my fourtune cookie prize




In The End :
D C G
Tap to rate this tab
# A B C D E F G H I J K L M N O P Q R S T U V W X Y Z