Song name
# A B C D E F G H I J K L M N O P Q R S T U V W X Y Z

Beat Happening - I Spy tab

-------------------------------------------------------------------------------
                                     I SPY - Beat Happening
-------------------------------------------------------------------------------
Tabbed by: Jonathan Luker
E-mail: jonathan_luker@yahoo.com.au

Tuning: Standard guitar

INTRO:
e|---------------------------------------------------------------------------|
B|---------------------------------------------------------------------------|
G|---------------------------------------------------------------------------|
D|-------7-7-----7-7-----7-7-----7-7-----7-7-----7-7-----7-7-----7-7---------|
A|---------------------------------------------------------------------------|
E|----5-------5-------5-------5-------5-------5-------5-------5--------------|
                                      (drums)

VERSE:
e|---------------------------------------------------------------------------|
B|---------------------------------------------------------------------------|
G|---------------------------------------------------------------------------|
D|-------7-7-------------7-7--5---------7-7-------------7-7------------------|
A|----------------7-5-------------7-5-------------7-5-------------7-5--------|
E|----5---------------5---------------5---------------5----------------------|
   I'm more important in the USA than a spy from the FBI.

e|---------------------------------------------------------------------------|
B|---------------------------------------------------------------------------|
G|---------------------------------------------------------------------------|
D|-------7-7--7-5-------7-7---7-5---7---7-7---7-7-7-7---7-7---7-7-7-7--------|
A|------------------7-------------7------------------------------------------|
E|----5---------------5------------------------------------------------------|
  Trained to meet the criminal elite, I seek out wherever evil resides.

SOLO/CHORUS (highs ring out, lows clipped short)
e|-------5-3-5-----------5-3-5-3---------5-3-5-----------5-3-5-3-------------|
B|---------------------------------------------------------------------------|
G|---------------------------------------------------------------------------|
D|---------------------------------------------------------------------------|
A|---------------------------------------------------------------------------|
E|----5---------------5---------------5---------------5----------------------|

e|---------------------------------------------------------------------------|
B|---------------------------------------------------------------------------|
G|---------------------------------------------------------------------------|
D|---------------------------------------------------------------------------|
A|---------------------------------------------------------------------------|
E|----5-----5-5-------5-----5-5-------5-----5-5-------5-----5-5--------------|
                                                         I spy...

VERSE 2
I'm at home on the streets of Rome, or just hangin' round old Shanghai
Danger is my logo, espianage au-go-go, I'm just diggin' this American crime.

CHORUS (no lyrics, just solo riff)

VERSE 3
Two deadly agents of a wicked persuasion tried to send me on a permanent vacation.
I gave em the slip, cause I'm totally hip, to that modern counter-espionage. 

CHORUS (no lyrics, just solo riff)

VERSE 4

Got a bullet-proof car and a secret scar, and a ring with x-ray eyes
I wear Spanish boots and Brooks Bros. suits, and I don't know how to cry.


************************************

| /   slide up
| \   slide down
| h   hammer-on
| p   pull-off
| ~   vibrato
| +   harmonic
| x   Mute note
| b   Bend
| pb  Pre-bend
| br  Bend release
| pbr Pre-bend release
| brb Bend release bend

************************************
Tap to rate this tab
# A B C D E F G H I J K L M N O P Q R S T U V W X Y Z