Song name
# A B C D E F G H I J K L M N O P Q R S T U V W X Y Z

Beat Happening - Black Candy tab

Intro:
E---0-0-0--3-3-3--0-0-0--3-3-3--|
A-------------------------------|
G-------------------------------|
D-------------------------------|
B-------------------------------|
E-------------------------------|

Keep this pattern up during the verses  end verses with an extra E--3-3-----
                                       to lead into the chorus


Chorus
E-------5--5--3--3--3---5-5--3-3--3---5----7---3--3----5-5---3-3-3-----|
A-------7--7--5--5--5---7-7--5-5--5---7----9---5--5----7-7---5-5-5-----|
D-------7--7--5--5--5---7-7--5-5--5---7----9---5--5----7-7---5-5-5-----|
G----------------------------------------------------------------------|
B----------------------------------------------------------------------|
E----------------------------------------------------------------------|
  Black Candy                   Black  Can-Dy   yea

E-------5--5--3--3--3---5-5--3-3--3---5----7---3--3----5-5---3-3-3-----|
A-------7--7--5--5--5---7-7--5-5--5---7----9---5--5----7-7---5-5-5-----|
D-------7--7--5--5--5---7-7--5-5--5---7----9---5--5----7-7---5-5-5-----|
G----------------------------------------------------------------------|
B----------------------------------------------------------------------|
E----------------------------------------------------------------------|
  Black Candy                   Black  Can-Dy   yea


Sorry there are no lyrics for the song online

-dazedone
Tap to rate this tab
 
# A B C D E F G H I J K L M N O P Q R S T U V W X Y Z