Song name
# A B C D E F G H I J K L M N O P Q R S T U V W X Y Z

Beat Happening - Red Head Walking tab

Beat Happening- Red Head Walking-Dreamy

My first full tab. I noticed it wasn't on here so I figured it out my self.
Great Song By Beat Happening
2007 Enrique Leon
Intro/Riff 2
-----3-3-3-3-3-3-3-3-0-------------------|
-----0-0-0-0-0-0-0-0-0h2-2-2-1-1-1-1-----|
-----0-0-0-0-0-0-0-0-0h2-2-2-0-0-0-0-----|
-----0-0-0-0-0-0-0-0-0h2-2-2-2-2-2-2-----|
-----2-2-2-2-2-2-2-2---------3-3-3-3-----|
-----3-3-3-3-3-3-3-3---------------------|

Chorus/Main Riff-Read Head Walking part
----3-3-3-3-------3-3-3-3------------|
----0-0-0-0-2-2-2-0-0-0-0-2b-2b-2b-0-|
----0-0-0-0-2-2-2-0-0-0-0-2b-2b-2b-0-|
----0-0-0-0-2-2-2-0-0-0-0-2b-2b-2b-0-|
----2-2-2-2-------2-2-2-2------------|
----3-3-3-3-------3-3-3-3------------|


Break
Its just G chord with stops hear the song and youll get it

solo
----------------------------------------------------------------------------|
---9-9-10-11--11-11-11-10-9---9-9-10-11--11-11-11-10---9-9-10-11--11-11-11--|b
----------------------------------------------------------------------------|
----------------------------------------------------------------------------|
----------------------------------------------------------------------------|
----------------------------------------------------------------------------|

Order with lyrics

Intro/Riff2x3
there are silver dressed darlings
and ramen mein delights
when she gets all fired up
she beats them in the night

Main RiffX3
that red head walking
that red head walking
red head walking

Break

Riff2X1
don't get close
she'll warn you with her brow
Break
she's a bud cuttin
star studded
leather chested gal

Main Riff X3
that red head walking
that red head walking
red head walking

Break
better listen keep yer distance from the crimson path

Riff2X1

Main RiffX4
kiss that girl
kiss that girl
Break

Riff2X3
she'll cut your heart like diamonds
end of story

Break
you bet you're gonna lose it to that hellbound crimson glory

Main RiffX3
red head walkin
red head walkin

Break
Solo with Riff2 backing

Riff2X2
heed what this wise man says
keep away from red heads.

Break

end
Tap to rate this tab
 
# A B C D E F G H I J K L M N O P Q R S T U V W X Y Z