Guitaretab - guitar tabs
Song name
# A B C D E F G H I J K L M N O P Q R S T U V W X Y Z

Beatallica - Hey Dude tab

Intro

Guitar 1
E---------0-------|  |--------2-------|
B-------0---0--0--|  |-----3----3-----|
G-----------------|x3|---2--2-------2-|
D-----2-------2---|  |-0----------4---|
A---2-------------|  |----------------|
E-0---------------|  |----------------|

Guitar 2
E--------7---0---4---7---14--12--14--12--|
B----------------------------------------|
G----------------------------------------|
D----------------------------------------|
A----------------------------------------|
E----------------------------------------|

Guitar 1
E--------------0-5-0-------------------0--------------------0-------|
B--------------------7-0-0-5---------0---0----0---------0---0-------|
G---------2---------------------------------------------------------|
D-----2----------------------7-----2--------2-------2-------2-------|
A-4----------0-------------------2----------------2---------2-------|
E------------------------------0---------------0--------------------|

Guitar 2
E-14--12--14--12--10--9---7---7---7---0---0-----------|
B-----------------------------------------------------|
G-----------------------------------------------------|
D-----------------------------------------------------|
A-----------------------------------------------------|
E-----------------------------------------------------|

Verse 1

E------------0--------------------------------------0---------------0------|
B--------------0-----------------4----------------4---4--------------0-----|
G----------4-----4-----------4-4---4------------4-------4---------4---4----|
D---------2--------2---4---4--------------4---4-----------4------2-----2---|
A---2---2------------2---2-----------2-4-6--6----------------2--2----------|
E-0---0-----------------------------------------------------0--0-----------|
 "Hey Dude, its true not sad..."

E-------0-0-5-0------------------0---------2-----------0-----|
B---------------7-0-0-5-----------0-------0-0-----------0----|
G-----2------------------------4---4-----2---2-------4---4---|
D--2-2------------------7-----2-----2-1-1-----1-----2-----2--|
A-0-0----------------------2-2-------2-2---------2-2---------|
E-------------------------0-0-------------------0-0----------|

Bridge
 
--------------------------------------------------------------------------|
3-3-3-3-3-3-3-3-3-3-3-3---------------------------------------------------|
4-4-4-4-4-4-4-4-4-4-4-4-2-2-2-2-2-2-2-2-----------------8-8-8-8-----------|
2-2-2-2-2-2-2-2-2-2-2-2-2-2-2-2-2-2-2-2-4-4-4-4-2-2-2-2-9-9-9-9-9-9-9-9---|
2-2-2-2-2-2-2-2-2-2-2-2-0-0-0-0---------4-4-4-4-2-2-2-2-6-6-6-6-9-9-9-9---|
0-0-0-0-0-0-0-0-0-0-0-0---------4-4-4-4-2-2-2-2-0-0-0-0---------7-7-7-7---|
                       "Hey dude, your fuckin' insane..."

E-----------------------------------------------------------------
B-----------------------------------------------------------------
G-9-9-9-9-9-9-9-9-7-7-7-7-7-7-7-7-2-2-2-2-2-2-2-2-----------------
D-9-9-9-9-9-9-9-9-6-6-6-6-6-6-6-6-2-2-2-2-2-2-2-2-4-4-4-4-2-2-2-2-
A-7-7-7-7-7-7-7-7-7-7-7-7-7-7-7-7-0-0-0-0---------4-4-4-4-2-2-2-2-
E-0-0-0-0-0-0-0-0-------------------------4-4-4-4-2-2-2-2-0-0-0-0-

E-----------------|
B-----------------|
G-8-8-8-8---------|
D-9-9-9-9-9-9-9-9-|
A-6-6-6-6-9-9-9-9-|
E---------7-7-7-7-|
[ Tab from: http://www.guitaretab.com/b/beatallica/168527.html ]
Guitar 1
E----------------------------------|
B----------------------------------|
G-9-9-9-9-9-9-9-9-7-7-7-7----------|
D-9-9-9-9-9-9-9-9-6-6-6-6----------|
A-7-7-7-7-7-7-7-7-7-7-7-7-6-7-9-9--|
E-0-0-0-0-0-0-0-0------------------|

Guitar 2
E----------------------------------|
B----------------------------------|
G-9-9-9-9-9-9-9-9-7-7-6-7----------|
D-9-9-9-9-9-9-9-9-6-6-6-6----------|
A-7-7-7-7-7-7-7-7-7-7-7-7-2-4-6-6--|
E-0-0-0-0-0-0-0-0------------------|

Verse 2
 
E-------------------------------------------------------------------
B-------------------------------------------------------------------
G-------------------------------------------------------------------
D-----------------4-4-4-4-4-4-4-4-4-4-4-4-4-4-4-4-------------------
A-2-2-2-2-2-2-2-2-2-2-2-2-2-2-2-2-2-2-2-2-2-2-2-2-2-2-2-2-2-2-2-2---
E-0-0-0-0-0-0-0-0---------------------------------0-0-0-0-0-0-0-0---
 "Hey dude, never turn it down.."
E-------------------------------------------------------------------
B-------------------------------------------------------------------
G-------------------------------------------------------------------
D-2-2-2-2-2-2-2-2-------------------4-4-4-4-4-4-4-4-----------------
A-0-0-0-0-0-0-0-0-2-2-2-2-2-2-2-2-2-2-2-2-2-2-2-2-2-2-2-2-2-2-2-2---
E-----------------0-0-0-0-0-0-0-0-0-----------------0-0-0-0-0-0-0---


Bridge

E---------------------------------------------------------------------
B---------------------------------------------------------------------
G---2-2-2-2-2-2-2-2-----------------8-8-8-8---------9-9-9-9-9-9-9-9---
D---2-2-2-2-2-2-2-2-4-4-4-4-2-2-2-2-9-9-9-9-9-9-9-9-9-9-9-9-9-9-9-9---
A-5-0-0-0-0---------4-4-4-4-2-2-2-2-6-6-6-6-9-9-9-9-7-7-7-7-7-7-7-7---
E-----------4-4-4-4-2-2-2-2-0-0-0-0---------7-7-7-7-0-0-0-0-0-0-0-0---

E-------------------------------------------------------------------
B-------------------------------------------------------------------
G-----------------2-2-2-2-2-2-2-2-----------------8-8-8-8-----------
D-----------------2-2-2-2-2-2-2-2-4-4-4-4-2-2-2-2-9-9-9-9-9-9-9-9-9-
A-5-5-5-5-5-5-5-5-0-0-0-0---------4-4-4-4-2-2-2-2-6-6-6-6-9-9-9-9-7-
E-0-0-0-0-0-0-0-0---------4-4-4-4-2-2-2-2-0-0-0-0-----------7-7-7-7-

E-----------------
B-----------------
G-9-9-9-9-9-9-9-9-
D-9-9-9-9-9-9-9-9-
A-7-7-7-7-7-7-7-7-
E-0-0-0-0-0-0-0-0-

E-------------------------------------------------------------------
B-------------------------------------------------------------------
G-7-7-7-7-7-7-7-7-2-2-2-2-2-2-2-2-----------------8-8-8-8-----------
D-6-6-6-6-6-6-6-6-2-2-2-2-2-2-2-2-4-4-4-4-2-2-2-2-9-9-9-9-9-9-9-9---
A-7-7-7-7-7-7-7-7-0-0-0-0---------4-4-4-2-2-2-2-2-6-6-6-6-9-9-9-9---
E-------------------------4-4-4-4-2-2-2-2-0-0-0-0---------7-7-7-7---

Guitar 1
E----------------------------------
B----------------------------------
G-9-9-9-9-9-9-9-9-7-7-7-7----------
D-9-9-9-9-9-9-9-9-6-6-6-6----------
A-7-7-7-7-7-7-7-7-7-7-7-7-6-7-9-9--
E-0-0-0-0-0-0-0-0------------------

Guitar 2
E-----------------------------------
B-----------------------------------
G-9-9-9-9-9-9-9-9-7-7-7-7-----------
D-9-9-9-9-9-9-9-9-6-6-6-6-----------
A-7-7-7-7-7-7-7-7-7-7-7-7-2-4-6-6---
E-0-0-0-0-0-0-0-0-------------------

Verse 2
 
Out-Chorus
 
E-------------------------------------------------------------------
B-------------------------------------------------------------------
G-------------------------------------------------------------------
D-----------------7-7-7-7-7-7-7-7-----------------------------------
A-2-2-2-2-2-2-2-2-5-5-5-5-5-5-5-5-7-7-7-7-7-7-7-7-2-2-2-2-2-2-2-2---
E-0-0-0-0-0-0-0-0-----------------5-5-5-5-5-5-5-5-0-0-0-0-0-0-0-0---
"Naaahhhh, naahhh nahhh nanananahhhh...! hey dude!"

Related for Hey Dude tab