Song name
# A B C D E F G H I J K L M N O P Q R S T U V W X Y Z

Beatallica - And Im Evil tab

INTRO
  B5  A5  B5   C5
e--------------------------------------|
B--------------------------------------|
G--------------------------------------|
D--4---2---4---5-----------------------|
A--2---0---2---3-----------------------|
E--------------------------------------|

|-------Let Ring----------------------|


Riff 1

e--------------------------------------|
B--------------------------------------|
G--------------------------------------|
D---------4----------------------------|
A-----5-4-2----------------------------|
E---5----------------------------------|

|---P.M.-------|

Riff 2


        B5
e--------------------------------------|
B--------------------------------------|
G--------------------------------------|
D--4---4-4-4-4---4---4-4-4-4-----------|
A--2---2-2-2-2---2---2-2-2-2-----------|
E--------------------------------------|

      |-P.M.-|      |-P.M.-|


Riff 3


       E5             B5
e---------------------------------------|
B---------------------------------------|
G---------------------------------------|
D--------------------4-4-4-4-4-4--------|
A--2---2-2-2-2-2-2-2-2-2-2-2-2-2--------|
E--0---0-0-0-0-0-0-0--------------------|
       |-----------P.M.-----------------|

Riff 4

    B5      G5           A5
e--------------------------------------|
B--------------------------------------|
G--------------------------------------|
D--4-4-4-4-----------------------------|
A--2-2-2-2-5-5-5-5-5-5---7-------------|
E----------3-3-3-3-3-3---5-------------|

   |------P.M.-------| |-Let Ring-|

Verse


    E5           B5
e--------------------------------------|
B--------------------------------------|
G--------------------------------------|
D--------------4-4-4-4-4-4-------------|
A--2-2-2-2-2-2-2-2-2-2-2-2-------------|
E--0-0-0-0-0-0-------------------------|

|-----------P.M.-----------|

Chorus


     G5         A5           D5
e--------------------------------------|
B--------------------------------------|
G--------------------------------------|
D--------------------------7-7-7-7-7-7-|
A--5-5-5-5-5-5-7-7-7-7-7-7-5-5-5-5-5-5-|
E--3-3-3-3-3-3-5-5-5-5-5-5-------------|

|------P.M.------------|
Riff 5

e--------------------------------------|
B--------------------------------------|
G--------------------------------------|
D--------6-----------------------------|
A----7-6-4-----------------------------|
E--7-----------------------------------|

|--P.M.--|

Interlude

   C#5           F#5
e--------------------------------------|
B--------------------------------------|
G--------------------------------------|
D--6-6-6-6-6-6-------------------------|
A--4-4-4-4-4-4-4-4-4-4-4-4-------------|
E--------------2-2-2-2-2-2-------------|

|-------P.M.------------|

Chorus interlude
     A5         B5           E5
e--------------------------------------|
B--------------------------------------|
G--------------------------------------|
D--------------------------7-7-7-7-7-7-|
A--7-7-7-7-7-7-9-9-9-9-9-9-9-9-9-9-9-9-|
E--5-5-5-5-5-5-7-7-7-7-7-7-------------|

|---------------P.M.-----------------|

Ending

e--------------------------------------|
B----------------6-5-6-\\\\8-----------|
G------------4-3-----------------------|
D--------3-2---------------------------|
A----2-1-------------------------------|
E--0-----------------------------------|

Order
(Intro) (Riff 1)(Riff 2 x2) (Riff 3 x2) (Riff 4)
(Riff 1 x2)

(Verse)
My mother wuz a witch, burned alive-ooooh!
And if she ain't my bitch,
(Chorus)
you'd cry tearz too
I'm evil
(Riff 1)
(Verse)
Now of revenge I sing, most evilly
The shit on you I'll bring,
(Chorus)
most metally
And I'm evil
(Riff 1)
(Verse)
Vengeance like mine could never die
Az long az my metal'z in me
(Verse)
Black is my Misfits shirt, I've 20 Eyez
Sleeveless shirt full of dirt sayz
(Chorus)
"Darling Die"
And I'm evil
(Interlude)
(Chorus interlude)

(Riff 5 x6)
And I'm evil-yes, I am
And I'm evil-I am man
(Ending)
And I'm evil-yes, I fuckin' am!

Tab by lintheminish
mail: linktheminish@hotmail.com
Tap to rate this tab
# A B C D E F G H I J K L M N O P Q R S T U V W X Y Z