Song name
# A B C D E F G H I J K L M N O P Q R S T U V W X Y Z

Beatles - All You Need Is Love tab

The Beatles: All I Need is Love - Arranged for solo guitar.

Tuning: Standard (EADGBE)

Swing Eighths



INTRO

       
  E E   Q   Q   Q   Q     Q.    E E E E E   E E Q   Q   Q
E-----|-----------------|-3-----0-----0---|-----1-----------|
B-----|-1---1---3---3---|-1-------1-1---1-|-------------3---|
G-0-2-|---------0---0---|-----------------|-2---------------|
D-----|-2---2-----------|---------2-------|-3-0-------------|
A-----|-----------------|-----------------|-----------------|
E-----|-----------------|-----------------|---------3-------|

    E E E E E E E E   E E E E E E   E E E E E E E E   E E E E E E
E-|-0---------------|-------------|-0---------------|-------------|
B-|-----1---3-------|-1-----------|-----1---3-------|-1-----------|
G-|---0---0-----0---|-----2-------|---0---0-----0---|-----2-------|
D-|-----------0---0-|---2---2-----|-----------0---0-|---2---2---2-|
A-|-3-------2-------|-0-------0h2-|-3-------2-------|-0-------0---|
E-|-----------------|-------------|-----------------|-------------|
    Love,   love,     love.         Love,   love,     love.

    E E E E E E E E   E E E E E E Q     E E E E E E E E   E E Q   E E
E-|-1-------0-------|-----------------|-----------------|-------------|
B-|-----0-------1---|-3-----------3---|-----0-------0---|-------------|
G-|---0---0---0---0-|-----0-------2---|---0---0---0---0-|-------------|
D-|-0---------------|---0---0---3-----|-----------------|-------------|
A-|---------3-------|-2-------0-------|-----------------|-----------0-|
E-|-----------------|-----------------|-3-------1-------|-0-1-3---3---|
    Love,   love,     love.



  VERSE

    |-3-| |-3-|           |-3-|               |-3-|           |-3-|
    E E E E E E E E E E   E E E E E E E   E E E E E E E E E   E E E E E E E
E-|-----0-0-------------|---------------|---0-0-------------|---------------|
B-|---1-----3-1-3-1-1---|-3p1-----------|-------3-1-3-1-1---|-3p1-----------|
G-|-------0-----------2-|-----2---2-----|-----0-----------2-|-----2---2-----|
D-|---------------------|-------2-------|-------------------|-------2-----2-|
A-|-3-----------2-------|-0---------0h2-|-3---------2-------|-0---------0---|
E-|---------------------|---------------|-------------------|---------------|
    There's nothing...    done.           Nothing you can...  sung.

        |-3-|     |-3-|   |-3-|
    E E E E E E E E E E   E E E E E Q   E E   Q   Q   Q   Q     E E Q   E E
E-|---0-0-------------0-|---------------1---|-5---3-------3---|-------------|
B-|-------3-1-3-1---1---|-3-1-3-1-3-----3---|-0-----------0---|-------------|
G-|-----0---------2-----|---------------2-0-|-0-----------0---|-------------|
D-|-0-------------------|-------------------|-----------------|-------------|
A-|-----------3---------|-2---------0-------|-----------------|-----------0-|
E-|---------------------|-------------------|---------1-------|-0-1-3---3---|
    Nothing you can...    how to play the...  easy.

    |-3-| |-3-|           |-3-|               |-3-|           |-3-|
    E E E E E E E E E E   E E E E E E E   E E E E E E E E E   E E E E E E E
E-|-----0-0-------------|---------------|---0-0-------------|---------------|
B-|---1-----3-1-3-1-1---|-3p1-----------|-------3-1-3-1-1---|-3p1-----------|
G-|-------0-----------2-|-----2---2-----|-----0-----------2-|-----2---2-----|
D-|---------------------|-------2-------|-------------------|-------2-----2-|
A-|-3-----------2-------|-0---------0h2-|-3---------2-------|-0---------0---|
E-|---------------------|---------------|-------------------|---------------|
    Nothing you can...    made.           No one you can...   saved.

        |-3-|     |-3-|   |-3-|
    E E E E E E E E E E   E E E E E Q   E E   Q   Q   Q   Q     E E Q   E E
E-|---0-0-------------0-|---------------1---|-5---3-------3---|-------------|
B-|-------3-1-3-1---1---|-3-1-3-1-3-----3---|-0-----------0---|-------------|
G-|-----0---------2-----|---------------2-0-|-0-----------0---|-------------|
D-|-0-------------------|-------------------|-----------------|-------------|
A-|-----------3---------|-2---------0-------|-----------------|-----------0-|
E-|---------------------|-------------------|---------1-------|-0-1-3---3---|
    Nothing you can...    how to be you in... It's easy.



  CHORUS

    Q   E E E E E E   Q   Q   E E E E   Q   E E E E E E   Q   Q   E E E E
E-|-----3-3-3-3---3-|-----------------|-----3-3-3-3---3-|-----------------|
B-|-----1---3-----0-|---------0-------|-----1---3-----0-|---------0-------|
G-|-----0---2-----0-|-----------3-2-1-|-0---0---2-----0-|-----------3-2-1-|
D-|-----2---0---0---|-----0-----------|-----2---0---0---|-----0-----------|
A-|-3---------------|-----------------|-3---------------|-----------------|
E-|-----------------|-3---------------|-----------------|-3---------------|
    All you need is love.               All you need is love.

                                            |-3-|
    Q   E E E E E E   Q   E E E E E E   E E E E E E E Q     E E E E
E-|-----3-3-4-4---5-|-------0---------|-------0-----------|---------|
B-|-----1---5-5---5-|-------------1---|-----3---3---1-1---|-----1---|
G-|-0---0---4-4---5-|-----------0---0-|---2---------------|---0---0-|
D-|-----2-----------|-----------------|-3-----------------|---------|
A-|-3---------------|-0---0---3-------|-------------------|-3-------|
E-|-------------0---|-----------------|-----------3-------|---------|
    All you need is love,   love.       Love is all you need.



  INTERLUDE

    E E E E E E E E   E E E E E E   E E E E E E E E   E E E E E E
E-|-0---------------|-------------|-0---------------|-------------|
B-|-----1---3-------|-1-----------|-----1---3-------|-1-----------|
G-|---0---0-----0---|-----2-------|---0---0-----0---|-----2-------|
D-|-----------0---0-|---2---2-----|-----------0---0-|---2---2---2-|
A-|-3-------2-------|-0-------0h2-|-3-------2-------|-0-------0---|
E-|-----------------|-------------|-----------------|-------------|
    Love,   love,     love.         Love,   love,     love.

    E E E E E E E E   E E E E E E Q     E E E E E E E E   E E Q   E E
E-|-1-------0-------|-----------------|-----------------|-------------|
B-|-----0-------1---|-3-----------3---|-----0-------0---|-------------|
G-|---0---0---0---0-|-----0-------2---|---0---0---0---0-|-------------|
D-|-0---------------|---0---0---3-----|-----------------|-------------|
A-|---------3-------|-2-------0-------|-----------------|-----------0-|
E-|-----------------|-----------------|-3-------1-------|-0-1-3---3---|
    Love,   love,     love.



  CHORUS

    Q   E E E E E E   Q   Q   E E E E   Q   E E E E E E   Q   Q   E E E E
E-|-----3-3-3-3---3-|-----------------|-----3-3-3-3---3-|-----------------|
B-|-----1---3-----0-|---------0-------|-----1---3-----0-|---------0-------|
G-|-----0---2-----0-|-----------3-2-1-|-0---0---2-----0-|-----------3-2-1-|
D-|-----2---0---0---|-----0-----------|-----2---0---0---|-----0-----------|
A-|-3---------------|-----------------|-3---------------|-----------------|
E-|-----------------|-3---------------|-----------------|-3---------------|
    All you need is love.               All you need is love.

                                            |-3-|
    Q   E E E E E E   Q   E E E E E E   E E E E E E E Q     E E E E
E-|-----3-3-4-4---5-|-------0---------|-------0-----------|---------|
B-|-----1---5-5---5-|-------------1---|-----3---3---1-1---|-----1---|
G-|-0---0---4-4---5-|-----------0---0-|---2---------------|---0---0-|
D-|-----2-----------|-----------------|-3-----------------|---------|
A-|-3---------------|-0---0---3-------|-------------------|-3-------|
E-|-------------0---|-----------------|-----------3-------|---------|
    All you need is love,   love.       Love is all you need.



  VERSE

    |-3-| |-3-|           |-3-|               |-3-|           |-3-|
    E E E E E E E E E E   E E E E E E E   E E E E E E E E E   E E E E E E E
E-|-----0-0-------------|---------------|---0-0-------------|---------------|
B-|---1-----3-1-3-1-1---|-3p1-----------|-------3-1-3-1-1---|-3p1-----------|
G-|-------0-----------2-|-----2---2-----|-----0-----------2-|-----2---2-----|
D-|---------------------|-------2-------|-------------------|-------2-----2-|
A-|-3-----------2-------|-0---------0h2-|-3---------2-------|-0---------0---|
E-|---------------------|---------------|-------------------|---------------|
    There's nothing...    known.          Nothing you can...  shown.

        |-3-|     |-3-|   |-3-|
    E E E E E E E E E E   E E E E E Q   E E   Q   Q   Q   Q     E E Q   E E
E-|---0-0-------------0-|---------------1---|-5---3-------3---|-------------|
B-|-------3-1-3-1---1---|-3-1-3-1-3-----3---|-0-----------0---|-------------|
G-|-----0---------2-----|---------------2-0-|-0-----------0---|-------------|
D-|-0-------------------|-------------------|-----------------|-------------|
A-|-----------3---------|-2---------0-------|-----------------|-----------0-|
E-|---------------------|-------------------|---------1-------|-0-1-3---3---|
    Nowhere you can be... where you're...     It's easy.



  CHORUS

    Q   E E E E E E   Q   Q   E E E E   Q   E E E E E E   Q   Q   E E E E
E-|-----3-3-3-3---3-|-----------------|-----3-3-3-3---3-|-----------------|
B-|-----1---3-----0-|---------0-------|-----1---3-----0-|---------0-------|
G-|-----0---2-----0-|-----------3-2-1-|-0---0---2-----0-|-----------3-2-1-|
D-|-----2---0---0---|-----0-----------|-----2---0---0---|-----0-----------|
A-|-3---------------|-----------------|-3---------------|-----------------|
E-|-----------------|-3---------------|-----------------|-3---------------|
    All you need is love.               All you need is love.

                                            |-3-|
    Q   E E E E E E   Q   E E E E E E   E E E E E E E Q     E E E E
E-|-----3-3-4-4---5-|-------0---------|-------0-----------|---------|
B-|-----1---5-5---5-|-------------1---|-----3---3---1-1---|-----1---|
G-|-0---0---4-4---5-|-----------0---0-|---2---------------|---0---0-|
D-|-----2-----------|-----------------|-3-----------------|---------|
A-|-3---------------|-0---0---3-------|-------------------|-3-------|
E-|-------------0---|-----------------|-----------3-------|---------|
    All you need is love,   love.       Love is all you need.

    Q   E E E E E E   Q   Q   E E E E   Q   E E E E E E   Q   Q   E E E E
E-|-----3-3-3-3---3-|-----------------|-----3-3-3-3---3-|-----------------|
B-|-----1---3-----0-|---------0-------|-----1---3-----0-|---------0-------|
G-|-----0---2-----0-|-----------3-2-1-|-0---0---2-----0-|-----------3-2-1-|
D-|-----2---0---0---|-----0-----------|-----2---0---0---|-----0-----------|
A-|-3---------------|-----------------|-3---------------|-----------------|
E-|-----------------|-3---------------|-----------------|-3---------------|
    All you need is love.               All you need is love.

                                            |-3-|               |-3-|
    Q   E E E E E E   Q   E E E E E E   E E E E E E E Q     E E E E E
E-|-----3-3-4-4---5-|-------0---------|-------0-----------|-------0---|
B-|-----1---5-5---5-|-------------1---|-----3---3---1-1---|-----3---3-|
G-|-0---0---4-4---5-|-----------0---0-|---2---------------|---0-------|
D-|-----2-----------|-----------------|-3-----------------|-----------|
A-|-3---------------|-0---0---3-------|-------------------|-3---------|
E-|-------------0---|-----------------|-----------3-------|-----------|
    All you need is love,   love.       Love is all you need.

                |-3-|
     E E E E E E E E E
E-|----------------0----|
B-|*---1-1-------3---3-*|
G-|--------0---0--------| Repeat
D-|---------------------| and fade.
A-|*-3-------3---------*|
E-|---------------------|
    you need. Love is all
Tap to rate this tab
# A B C D E F G H I J K L M N O P Q R S T U V W X Y Z