Song name
# A B C D E F G H I J K L M N O P Q R S T U V W X Y Z

Beatles - Cant Buy Me Love tab

The Beatles: Can't Buy Me Love - Arranged for solo guitar.

Tuning: Standard (EADGBE)

Swing Eighths



  INTRO

    Q   Q   E Q   E   Q   E E E E Q     Q   E E E E Q     Q   E E E E Q
E-|-----------0---0-|-----------0-----|-----------------|-0---------0-----|
B-|---------2-------|-------0---------|-2---------2-----|-------0---------|
G-|-----2-----------|-----1-------1---|-------2---------|-----1-------1---|
D-|-----------------|---------2-------|-----4-------4---|---------2-------|
A-|-----------------|-4---------------|-----------------|-4---------------|
E-|-----------------|-----------------|-2-------2-------|-----------------|
    Can't buy me...                                       love,

    Q   Q   E Q   E   Q   E E E E Q     Q   Q   Q   Q
E-|-----------0---0-|-----------------|-----------------|
B-|-2-------2-------|-------3---3-----|-2---------------|
G-|-----2-----------|-----2-------2---|-1---------------|
D-|-----------------|---------0-------|-----2-------2---|
A-|-----------------|-2---------------|-----------------|
E-|-2---------------|-----------------|-0-------0-------|
    Can't buy me...                                 I'll



  VERSE

    Q   Q   Q   E E   Q   Q   Q   E E   Q   Q   E E E E   Q   Q   Q   Q
E-|-0---0-----------|-----------------|-----------------|-----------------|
B-|-2-------3---1-0-|-----------------|-----------------|-----------------|
G-|-0---------------|-----2---2---2p0-|-2-------0-2---2-|-------------2---|
D-|-----2-------2---|-----2-------2---|-----2-------2---|-----------------|
A-|-0-------0-------|-0-------0-------|-0-------0-------|-0---0---3---4---|
E-|-----------------|-----------------|-----------------|-----------------|
    buy you...        my friend, if...  makes you feel...             I'll

    Q   Q   E E E E   Q   Q   Q   E E   Q   Q   E E E E   Q   Q   Q   Q
E-|-0---0-----------|-----------------|-----------------|-----------------|
B-|---------3-1---0-|-----------------|-----------------|-----------------|
G-|-----2-----------|-----2---2---2p0-|-2-------0-2---2-|-----------------|
D-|-0-------0---0---|-0-------0-------|-----2-------2---|-----2-------2---|
A-|-----------------|-----0-----------|-0-------0-------|-0-------0-------|
E-|-----------------|-----------------|-----------------|-----------------|
    get you...        my friend, if...  makes you feel...           'Cause

    Q   Q   Q   Q     E Q   E E Q.      E E Q   E E E E   Q   Q   Q   Q
E-|-0---0---0---0---|-----------------|-0-0-0-----------|-----------------|
B-|-3---3---3---3---|---3---1-3-1-----|---------3-1-----|-----------------|
G-|-1---1---1---1---|-----------------|-----2---------2-|-----------------|
D-|-----------------|-0---------------|-0-------0---0---|-----2-------2---|
A-|-----------------|-----------------|-----------------|-0-------0-------|
E-|-0---------------|-----------------|-----------------|-----------------|
    I don't care too  much for money,   money can't...                I'll

    Q   Q   Q   E E   Q   Q   Q   E E   Q   Q   E E E E   Q   Q   Q   Q
E-|-0---0-----------|-----------------|-----------------|-----------------|
B-|-2-------3---1-0-|-----------------|-----------------|-----------------|
G-|-0---------------|-----2---2---2p0-|-2-------0-2---2-|-------------2---|
D-|-----2-------2---|-----2-------2---|-----2-------2---|-----------------|
A-|-0-------0-------|-0-------0-------|-0-------0-------|-0---0---3---4---|
E-|-----------------|-----------------|-----------------|-----------------|
    give you all...   to give, if you   say you love...

    Q   Q   E E E E   Q   Q   Q   E E   Q   Q   E E E E   Q   Q   Q   Q
E-|-0---0-----------|-----------------|-----------------|-----------------|
B-|---------3-1---0-|-----------------|-----------------|-----------------|
G-|-----2-----------|-----2---2---2p0-|-2-------0-2---2-|-----------------|
D-|-0-------0---0---|-0-------0-------|-----2-------2---|-----2-------2---|
A-|-----------------|-----0-----------|-0-------0-------|-0-------0-------|
E-|-----------------|-----------------|-----------------|-----------------|
    I may not have... lot to give..     I'll give to...

    Q   Q   Q   Q     E Q   E E Q.      E E Q   E E E E   Q   Q   E E E E
E-|-0---0---0---0---|-----------------|-0-0-0-----------|-----------0---0-|
B-|-3---3---3---3---|---3---1-3-1-----|---------3-1-----|---------2-------|
G-|-1---1---1---1---|-----------------|-----2---------2-|-----2-----------|
D-|-----------------|-0---------------|-0-------0---0---|-----2-------2---|
A-|-----------------|-----------------|-----------------|-0-------0-------|
E-|-0---------------|-----------------|-----------------|-----------------|
    I'don't care too  much for money,   money can't...



  CHORUS

    Q   E E E E Q     Q   E E E E Q     E E E E E E E E   Q   Q   E E E E
E-|-----------0-----|-----------------|-----------------|-----------0---0-|
B-|-------0---------|-2---------2-----|-1-1p0---0-------|---------2-------|
G-|-----1-------1---|-------2---------|-------2---2---2-|-----2-----------|
D-|---------2-------|-----4-------4---|-------------2---|-----2-------2---|
A-|-4---------------|-----------------|-0-------0-------|-0-------0-------|
E-|-----------------|-2-------2-------|-----------------|-----------------|
                                        everybody...      Can't buy me...

    Q   E E E E Q     Q   E E E E Q     E E E E Q   Q     Q   Q   Q   Q
E-|-----------0-----|-----------------|-----------------|-0---------------|
B-|-------0---------|-2---------2-----|-0-0---3---------|-3---------------|
G-|-----1-------1---|-------2---------|-----------------|-1---------------|
D-|---------2-------|-----4-------4---|-----0-------0---|-----------------|
A-|-4---------------|-----------------|-2-------2-------|-----------------|
E-|-----------------|-2-------2-------|-----------------|-0---0---2---4---|
                                        no, no, no,       no.



  VERSE

    E E Q   Q   Q     E E E E Q   E E   Q   Q   E E E E   Q   Q   Q   Q
E-|-0-0-0-----------|-----------------|-----------------|-----------------|
B-|-2-------3---1---|-0---------------|-----------------|-----------------|
G-|-0---------------|---2---2-------0-|-2-------0-2---2-|-----------------|
D-|-----2-------2---|-----2-------2---|-----2-------2---|-----------------|
A-|-0-------0-------|-0-------0-------|-0-------0-------|-0---0---3---4---|
E-|-----------------|-----------------|-----------------|-----------------|
    Say you don't...  diamond rings...  I'll be...

    E E E E E E Q     E E E E Q   E E   E E Q   E E E E   Q   Q   Q   Q
E-|-0-0-0-0---------|-----------------|-----------------|-----------------|
B-|---------3-1-----|-0---------------|-----------------|-----------------|
G-|-----2-------2---|---2---2-------0-|-2-------0-2---2-|-2---------------|
D-|-0-------0-------|-0---0-------0---|---2---------2---|-----2-------2---|
A-|-----------------|---------0-------|-0---0---0-------|-0-------0-------|
E-|-----------------|-----------------|-----------------|-----------------|
    Tell me that...   kind of things... money just...

    Q   Q   Q   Q     E Q   E E Q.      E E Q   E E E E   Q   Q   E E Q
E-|-0---0---0---0---|-----------------|-0-0-0-----------|-----------------|
B-|-3---3---3---3---|---3---1-3-1-----|---------3-1-----|-------------1---|
G-|-1---1---1---1---|-----------------|-----2---------2-|-----------2-----|
D-|-----------------|-0---------------|-0-------0---0---|-----2-------2---|
A-|-----------------|-----------------|-----------------|-0-------0-------|
E-|-0---------------|-----------------|-----------------|-----------------|
    I don't care...   much for money,   money can't...



  GUITAR SOLO

    Q   Q   Q   Q     Q   E E E E E E   Q   Q   Q   E E   E E E E E E Q
E-|-0-------0-------|-0-----0---------|-0-------0-----0-|-----------------|
B-|-----------------|---------3p1---1-|-----------------|-3p1-------------|
G-|-----------------|-------------2---|-----------------|-----2p0---------|
D-|-----2-------2---|-----2-------2---|-----2-------2---|---------2p0-----|
A-|-0-------0-------|-0---------------|-0-------0-------|-0-----------3---|
E-|-----------------|-----------------|-----------------|-----------------|

    Q   Q   Q   Q     Q   E E E E Q     Q   Q   Q   Q     Q   E E E E Q
E-|-----2-------2---|-2---2---2-2-----|-0-------0-------|-0-----0---------|
B-|-----1-------1---|-1---1---1-1-----|-----------------|---------3p1-----|
G-|-----2-------2---|-2---2---2-2-----|-----------------|-------------2---|
D-|-0---------------|-0-----------0---|-----2-------2---|-----2-------2---|
A-|---------0-------|-------0---------|-0-------0-------|-0-------0-------|
E-|-----------------|-----------------|-----------------|-----------------|

    Q   Q   Q   Q     Q   E E E E E E   E E E E E E Q     Q   Q   E E E E
E-|-----0-------0---|-----------------|-0-3---0---------|-----------0---0-|
B-|-----3-------3---|-3-----1-3p1---1-|---------3p1-----|---------2-------|
G-|-----1-------1---|-----2-------2---|-------------2---|-2---2-----------|
D-|---------2-------|-0-------0-------|-----2-------2---|-----2-------2---|
A-|-----------------|-----------------|-0-------0-------|-0-------0-------|
E-|-0---------------|-----------------|-----------------|-----------------|
                                                          Can't buy me love



  CHORUS

    Q   E E E E Q     Q   E E E E Q     E E E E E E E E   Q   Q   E E E E
E-|-----------0-----|-----------------|-----------------|-----------0---0-|
B-|-------0---------|-2---------2-----|-1-1p0---0-------|---------2-------|
G-|-----1-------1---|-------2---------|-------2---2---2-|-----2-----------|
D-|---------2-------|-----4-------4---|-------------2---|-----2-------2---|
A-|-4---------------|-----------------|-0-------0-------|-0-------0-------|
E-|-----------------|-2-------2-------|-----------------|-----------------|
                                        everybody...      Can't buy me...

    Q   E E E E Q     Q   E E E E Q     E E E E Q   Q     Q   Q   Q   Q
E-|-----------0-----|-----------------|-----------------|-0---------------|
B-|-------0---------|-2---------2-----|-0-0---3---------|-3---------------|
G-|-----1-------1---|-------2---------|-----------------|-1---------------|
D-|---------2-------|-----4-------4---|-----0-------0---|-----------------|
A-|-4---------------|-----------------|-2-------2-------|-----------------|
E-|-----------------|-2-------2-------|-----------------|-0---0---2---4---|
                                        no, no, no,       no.



  VERSE

    E E Q   Q   Q     E E E E Q   E E   Q   Q   E E E E   Q   Q   Q   Q
E-|-0-0-0-----------|-----------------|-----------------|-----------------|
B-|-2-------3---1---|-0---------------|-----------------|-----------------|
G-|-0---------------|---2---2-------0-|-2-------0-2---2-|-----------------|
D-|-----2-------2---|-----2-------2---|-----2-------2---|-----------------|
A-|-0-------0-------|-0-------0-------|-0-------0-------|-0---0---3---4---|
E-|-----------------|-----------------|-----------------|-----------------|
    Say you don't...  diamond rings...  I'll be...

    E E E E E E Q     E E E E Q   E E   E E Q   E E E E   Q   Q   Q   Q
E-|-0-0-0-0---------|-----------------|-----------------|-----------------|
B-|---------3-1-----|-0---------------|-----------------|-----------------|
G-|-----2-------2---|---2---2-------0-|-2-------0-2---2-|-2---------------|
D-|-0-------0-------|-0---0-------0---|---2---------2---|-----2-------2---|
A-|-----------------|---------0-------|-0---0---0-------|-0-------0-------|
E-|-----------------|-----------------|-----------------|-----------------|
    Tell me that...   kind of things... money just...

    Q   Q   Q   Q     E Q   E E Q.      E E Q   E E E E   Q   Q   E E Q
E-|-0---0---0---0---|-----------------|-0-0-0-----------|-----------------|
B-|-3---3---3---3---|---3---1-3-1-----|---------3-1-----|-------------1---|
G-|-1---1---1---1---|-----------------|-----2---------2-|-----------2-----|
D-|-----------------|-0---------------|-0-------0---0---|-----2-------2---|
A-|-----------------|-----------------|-----------------|-0-------0-------|
E-|-0---------------|-----------------|-----------------|-----------------|
    I don't care...   much for money,   money can't...    Can't buy me...



  OUTRO-CHORUS

    Q   E E E E Q     Q   E E E E Q     Q   E E E E Q     Q   Q   E Q   E
E-|-----------0-----|-----------------|-0---------0-----|-----------0---0-|
B-|-------0---------|-2---------2-----|-------0---------|-2-------2-------|
G-|-----1-------1---|-------2---------|-----1-------1---|-----2-----------|
D-|---------2-------|-----4-------4---|---------2-------|-----------------|
A-|-4---------------|-----------------|-4---------------|-----------------|
E-|-----------------|-2-------2-------|-----------------|-2---------------|
                                        love.             Can't buy me...

    Q   E E E E Q     Q   E E E E Q     Q   E E E E Q     W
E-|-----------------|-----------------|-----------------|-----------------|
B-|-------3---3-----|-2---------2-----|-2---------2-----|-2---------------|
G-|-----2-------2---|-------1-----1---|-------0-----0---|-0---------------|
D-|---------0-------|-----2-----------|-----2-----------|-2---------------|
A-|-2---------------|-----------------|-0-------0-------|-0---------------|
E-|-----------------|-0-------0-------|-----------------|-----------------|
                                        oh.
Tap to rate this tab
# A B C D E F G H I J K L M N O P Q R S T U V W X Y Z