Song name
# A B C D E F G H I J K L M N O P Q R S T U V W X Y Z

Beatles - Daytripper tab

This is the opening riff to one of the beatles greatest song (come on they are all great)
There is a key change make sure you get it

E--------------------------|
B--------------------------|
G--------------------------|
D----------2-0--4---0h2----|
A--------2-----2--2--------|
E--0-3-4-------------------|

this is when jon switches up to the higer riff played on A


E-------------------------|
B-------------------------|
G---------2-0--4---0h2----|
D-------2-----2--2--------|
A-0-3-4-------------------|
E-------------------------|          then it goes back

Well i know the chords later on but i just gave you the entire song (for the most part)
so wait fo my next beatles post
And please look for the band "Blind" on Napster soon we will be coming out with a CD soon
Blind's "The Peoples Republic Of China"
Dan
The lead guitarist for Blind
Tap to rate this tab
 
# A B C D E F G H I J K L M N O P Q R S T U V W X Y Z