Song name
# A B C D E F G H I J K L M N O P Q R S T U V W X Y Z

Beatles - Dig It tab

  
    --------------------------------------------------------

    THE BEATLES - DIG IT (Lennon & McCartney) From LET IT BE 
                  album. Released 8 May 1970

    --------------------------------------------------------

    Tabbed by:PJVillanueva



   
    Paul is on piano, Billy Preston on Hammond, George plays 
    a kind of bass part on his Fender Telecaster, John strums 
    chords on the Fender VI bass and Ringo is on drums.



    Like a rolling stone
    A like a rolling stone
    Like the FBI and the CIA
    And the BBC--BB King
    And Doris Day
    Matt Busby
    Dig it, dig it, dig it
    Dig it, dig it, dig it

    That was "Can You Dig It" by Georgie Wood. 
    And now we'd like to do "Hark The Angels Come"


      
    3/4 Time

 
  e|--------- --------- ---------|--------- --------- ---------|
  B|-----------------------------|-----------------------------|
  G|-----------------------------|-----------------------------|
  D|-----------------------------|-----------------------------|
  A|-----------------------------|-----------------------------|
  E|-----------------------------|-----------------------------|
                        Like  a   rolling                   stone  
    ......................... Fade in .........................



              F                             Bb        (Piano)
  e|--------- 1----1--- 1--------|--------- 1-------- 1--------|
  B|----------1----1----1--------|----------3---------3--------|
  G|----------2----2----2--------|----------3---------3--------|
  D|-----------------------------|-----------------------------|
  A|-----------------------------|-----------------------------|
  E|-----------------------------|-----------------------------|
                                                      (Hammond)
  e|--------- --------- ---------|--------- --------- ---------|
  B|6----6----6---------6--------|6----------------------------|
  G|5----5----5----5----8--------|7----------------------------|
  D|7----7----7---------7--------|8----------------------------|
  A|-----------------------------|-----------------------------|
  E|-----------------------------|-----------------------------|
                                                      (Telecaster)
  e|--------- --------- ---------|--------- --------- ---------|
  B|-----------------------------|-----------------------------|
  G|-----------------------------|-----------------------------|
  D|-----------------------------|-----------------------------|
  A|--------------------3--------|1----------------------------|
  E|1---------5------------------|-----------------------------|
    ...........................................................



              C                   Bb ....               
  e|--------- 3-------- 3--------|1-------- 1----1--- 1--------|
  B|----------5---------5--------|3---------3----3----3--------|
  G|----------5---------5--------|3---------3----3----3--------|
  D|-----------------------------|-----------------------------|
  A|-----------------------------|-----------------------------|
  E|-----------------------------|-----------------------------|

  e|-----3--- 4----3--- 3--------|--------- --------- ---------|
  B|-----5----5----5----5--------|6----------------------------|
  G|-----5----5----5----5--------|7----------------------------|
  D|-----------------------------|8----------------------------|
  A|-----------------------------|-----------------------------|
  E|-----------------------------|-----------------------------|

  e|--------- --------- ---------|--------- --------- ---------|
  B|-----------------------------|-----------------------------|
  G|-----------------------------|-----------------------------|
  D|----------2------------------|-----------------------------|
  A|3-------------------3--------|1----------------------------|
  E|-----------------------------|-----------------------------|
                        Like  a   rolling                   stone   
    ...........................................................


    00:07
                                                    
  e|1-------- 1----1--- 1--------|1-------- 1-------- 1--------|
  B|1---------1----1----1--------|3---------3---------3--------|
  G|2---------2----2----2--------|3---------3---------3--------|
  D|-----------------------------|-----------------------------|
  A|-----------------------------|-----------------------------|
  E|-----------------------------|-----------------------------|
                                                  
  e|--------- --------- ---------|--------- --------- ---------|
  B|----------6----6-------------|6----------------------------|
  G|5----7----5----5-------------|7----------------------------|
  D|7---------7----7-------------|8----------------------------|
  A|-----------------------------|-----------------------------|
  E|-----------------------------|-----------------------------|
                                                     
  e|--------- --------- ---------|--------- --------- ---------|
  B|-----------------------------|-----------------------------|
  G|-----------------------------|-----------------------------|
  D|-----------------------------|-----------------------------|
  A|--------------------3--------|1----------------------------|
  E|1---------5------------------|-----------------------------|
                                                      (Fender VI)
  G|2-------- 2----2--- 2--------|7-------- -----7--- ---------|
  D|3---------3----3----3--------|8--------------8-------------|
  A|3---------3----3----3--------|8--------------8-------------|
  E|1---------1----1----1--------|6--------------8-------------|
    ...........................................................




  e|3-------- 3-------- 3--------|1-------- 1-------- 1--------|
  B|5---------5---------5--------|3---------3---------3--------|
  G|5---------5---------5--------|3---------3---------3--------|
  D|-----------------------------|-----------------------------|
  A|-----------------------------|-----------------------------|
  E|-----------------------------|-----------------------------|

  e|3----4--- 3----3--- 3--------|--------- --------- ---------|
  B|5--------------5----5--------|6----------------------------|
  G|5--------------5----5--------|7----------------------------|
  D|-----------------------------|8----------------------------|
  A|-----------------------------|-----------------------------|
  E|-----------------------------|-----------------------------|

  e|--------- --------- ---------|--------- --------- ---------|
  B|-----------------------------|-----------------------------|
  G|-----------------------------|-----------------------------|
  D|----------2------------------|-----------------------------|
  A|3-------------------3--------|1----------------------------|
  E|-----------------------------|-----------------------------|

  G|-9------- -9----9-- -9-------|7-------- -----7--- 7--------|
  D|10--------10---10---10-------|8--------------8----8--------|
  A|10--------10---10---10-------|8--------------8----8--------|
  E|-8---------8----8----8-------|6--------------6----6--------|
                        Like  a   rolling                   stone 
    ...........................................................




  e|1-------- 1----1--- 1--------|1-------- 1-------- 1--------|
  B|1---------1----1----1--------|3---------3---------3--------|
  G|2---------2----2----2--------|3---------3---------3--------|
  D|-----------------------------|-----------------------------|
  A|-----------------------------|-----------------------------|
  E|-----------------------------|-----------------------------|

  e|--------- --------- ---------|--------- --------- ---------|
  B|6--------------6----6--------|6----------------------------|
  G|5--------------5----5--------|7----------------------------|
  D|7--------------7----7--------|8----------------------------|
  A|-----------------------------|-----------------------------|
  E|-----------------------------|-----------------------------|

  e|--------- --------- ---------|--------- --------- ---------|
  B|-----------------------------|-----------------------------|
  G|-----------------------------|-----------------------------|
  D|-----------------------------|-----------------------------|
  A|-----------------------------|1----------------------------|
  E|1---------5----5----5--------|-----------------------------|

  G|2-------- 2----2--- 2--------|7-------- -----7--- 7--------|
  D|3---------3----3----3--------|8--------------8----8--------|
  A|3---------3----3----3--------|8--------------8----8--------|
  E|1---------1----1----1--------|6--------------6----6--------|





  e|--------- --------- 3--------|1-------- 1-------- 1--------|
  B|--------------------5--------|3---------3---------3--------|
  G|--------------------5--------|3---------3---------3--------|
  D|-----------------------------|-----------------------------|
  A|-----------------------------|-----------------------------|
  E|-----------------------------|-----------------------------|

  e|3-------- -----3--- ---------|--------- --------- ---------|
  B|5---------6----4--H-5--------|6----------------------------|
  G|5--------------5-------------|7----------------------------|
  D|-----------------------------|8----------------------------|
  A|-----------------------------|-----------------------------|
  E|-----------------------------|-----------------------------|

  e|--------- --------- ---------|--------- --------- ---------|
  B|-----------------------------|-----------------------------|
  G|-----------------------------|-----------------------------|
  D|----------2------------------|-----------------------------|
  A|3-------------------3--------|1----------------------------|
  E|-----------------------------|-----------------------------|

  G|-9------- ------9-- -9-------|7-------- 7----7--- 7--------|
  D|10-------------10---10-------|8---------8----8----8--------|
  A|10-------------10---10-------|8---------8----8----8--------|
  E|-8--------------8----8-------|6---------6----6----6--------|
                        Like  the F               B         I


    00:17

  e|1-------- 1----1--- 1--------|1-------- 1-------- 1--------|
  B|1---------1----1----1--------|3---------3---------3--------|
  G|2---------2----2----2--------|3---------3---------3--------|
  D|-----------------------------|-----------------------------|
  A|-----------------------------|-----------------------------|
  E|-----------------------------|-----------------------------|

  e|--------- --------- ---------|--------- --------- ---------|
  B|--------------------6--------|6----8---------6----6--------|
  G|----------5---------8--------|7--------------7----7--------|
  D|7-------------------7--------|8--------------8----8--------|
  A|-----------------------------|-----------------------------|
  E|-----------------------------|-----------------------------|

  e|--------- --------- ---------|--------- --------- ---------|
  B|-----------------------------|-----------------------------|
  G|-----------------------------|-----------------------------|
  D|--------------------3--------|-----------------------------|
  A|---------------3-------------|1----------------------------|
  E|1---------5------------------|-----------------------------|

  G|2-------- 2----2--- ---------|7-------- -----7--- 7--------|
  D|3---------3----3-------------|8--------------8----8--------|
  A|3---------3----3-------------|8--------------8----8--------|
  E|1---------1----1-------------|6--------------6----6--------|





  e|--------- --------- 3--------|1-------- 1-------- 1--------|
  B|--------------------5--------|3---------3---------3--------|
  G|--------------------5--------|3---------3---------3--------|
  D|-----------------------------|-----------------------------|
  A|-----------------------------|-----------------------------|
  E|-----------------------------|-----------------------------|

  e|3----4--- --------- ---------|--------- --------- ---------|
  B|5----5--------------6--------|6----------------------------|
  G|5----5--------------8--------|7----------------------------|
  D|---------------8-------------|8----------------------------|
  A|-----------------------------|-----------------------------|
  E|-----------------------------|-----------------------------|

  e|--------- --------- ---------|--------- --------- ---------|
  B|-----------------------------|-----------------------------|
  G|-----------------------------|-----------------------------|
  D|----------2---------5--------|-----------------------------|
  A|3----------------------------|1----------------------------|
  E|-----------------------------|-----------------------------|

  G|-9------- ------9-- ---------|7-------- -----7--- 7--------|
  D|10-------------10------------|8--------------8----8--------|
  A|10-------------10------------|8--------------8----8--------|
  E|-8--------------8------------|6--------------6----6--------|
                    and       the C               I         A




  e|-8----8-- -8----8-- ------8--|10------- 10------- 10-------|
  B|10---10---10---10--------10--|11--------11--------11-------|
  G|10---10---10---10--------10--|10--------10--------10-------|
  D|-----------------------------|-----------------------------|
  A|-----------------------------|-----------------------------|
  E|-----------------------------|-----------------------------|

  e|--------- --------- ---------|--------- --------- ---------|
  B|6---------6----6----6--------|6---------6---------6----8---|
  G|5---------5----8-------------|7----------------------------|
  D|7---------7----7-------------|8----------------------------|
  A|-----------------------------|-----------------------------|
  E|-----------------------------|-----------------------------|

  e|--------- --------- ---------|--------- --------- ---------|
  B|-----------------------------|-----------------------------|
  G|-----------------------------|-----------------------------|
  D|--------------------3--------|-----------------------------|
  A|---------------3-------------|1--------------1-------------|
  E|1---------5------------------|-----------------------------|

  G|2-------- 2----2--- ---------|7-------- -----7--- 7--------|
  D|3---------3----3-------------|8--------------8----8--------|
  A|3---------3----3-------------|8--------------8----8--------|
  E|1---------1----1-------------|6--------------6----6--------|





  e|12---12-- 12---12-- -----12--|10---10-- 10---10-- ---------|
  B|13---13---13---13--------13--|11---11---11---11------------|
  G|12---12---12---12--------12--|10---10---10---10------------|
  D|-----------------------------|-----------------------------|
  A|-----------------------------|-----------------------------|
  E|-----------------------------|-----------------------------|

  e|3----4--- 3----3--- ---------|--------- --------- ---------|
  B|5--------------6-------------|6----------------------------|
  G|5--------------5-------------|7----------------------------|
  D|-----------------------------|8----------------------------|
  A|-----------------------------|-----------------------------|
  E|-----------------------------|-----------------------------|

  e|--------- --------- ---------|--------- --------- ---------|
  B|-----------------------------|-----------------------------|
  G|-----------------------------|-----------------------------|
  D|----------2------------------|-----------------------------|
  A|3----------------------------|1--------------1-------------|
  E|-----------------------------|-----------------------------|

  G|-9------- ------9-- ---------|7-------- -----7--- ---------|
  D|10-------------10------------|8--------------8-------------|
  A|10-------------10------------|8--------------8-------------|
  E|-8--------------8------------|6--------------6-------------|
                    and       the B               B


    00:26

  e|-8----8-- -8----8-- ---------|10------- 10------- 10-------|
  B|10---10---10---10------------|11--------11--------11-------|
  G|10---10---10---10------------|10--------10--------10-------|
  D|-----------------------------|-----------------------------|
  A|-----------------------------|-----------------------------|
  E|-----------------------------|-----------------------------|

  e|--------- --------- ---------|--------- --------- ---------|
  B|----------6----6-------------|6----------------------------|
  G|5----7----5----8-------------|7----------------------------|
  D|7---------7----7-------------|8----------------------------|
  A|-----------------------------|-----------------------------|
  E|-----------------------------|-----------------------------|

  e|--------- --------- ---------|--------- --------- ---------|
  B|-----------------------------|-----------------------------|
  G|-----------------------------|-----------------------------|
  D|--------------------3--------|-----------------------------|
  A|---------------3-------------|1--------------1-------------|
  E|1----------------------------|-----------------------------|

  G|2-------- 2----2--- ---------|7-------- -----7--- 7--------|
  D|3---------3----3-------------|8--------------8----8--------|
  A|3---------3----3-------------|8--------------8----8--------|
  E|1---------1----1-------------|6--------------6----6--------|
    C




  e|12---12-- 12---12-- -----12--|10---10-- 10---10-- ---------|
  B|13---13---13---13--------13--|11---11---11---11------------|
  G|12---12---12---12--------12--|10---10---10---10------------|
  D|-----------------------------|-----------------------------|
  A|-----------------------------|-----------------------------|
  E|-----------------------------|-----------------------------|

  e|3----4--- 3----3--- ---------|--------- --------- ---------|
  B|5--------------6-------------|6---------6---------6--------|
  G|5--------------5-------------|7---------7---------7--------|
  D|-----------------------------|8---------8---------8--------|
  A|-----------------------------|-----------------------------|
  E|-----------------------------|-----------------------------|

  e|--------- --------- ---------|--------- --------- ---------|
  B|-----------------------------|-----------------------------|
  G|-----------------------------|-----------------------------|
  D|----------2----5-------------|-----------------------------|
  A|3----3-----------------------|1--------------1----1--------|
  E|-----------------------------|-----------------------------|

  G|-9------- ------9-- -9-------|7----7--- 7-------- ---------|
  D|10-------------10---10-------|8----8----8------------------|
  A|10-------------10---10-------|8----8----8------------------|
  E|-8--------------8----8-------|6----6----6------------------|
                                  B     B         King




  e|-8----8-- -8----8-- ------8--|10------- 10------- ---------|
  B|10---10---10---10--------10--|11--------11-----------------|
  G|10---10---10---10--------10--|10--------10-----------------|
  D|-----------------------------|-----------------------------|
  A|-----------------------------|-----------------------------|
  E|-----------------------------|-----------------------------|

  e|--------- --------- ---------|--------- --------- ---------|
  B|----------6----6-------------|6----------------------------|
  G|5----7---------8-------------|7----------------------------|
  D|7--------------7-------------|8----------------------------|
  A|-----------------------------|-----------------------------|
  E|-----------------------------|-----------------------------|

  e|--------- --------- ---------|--------- --------- ---------|
  B|-----------------------------|-----------------------------|
  G|-----------------------------|-----------------------------|
  D|-----------------------------|-----------------------------|
  A|-----------------------------|1--------------1----1----1-/-|
  E|1--------------1---------1---|-----------------------------|

  e|--------- --------- ---------|--------- --------- ---------|
  B|-----------------------------|-----------------------------|
  G|-----------------------------|-----------------------------|
  D|-----------------------------|-----------------------------|
  A|-----------------------------|-----------------------------|
  E|-----------------------------|-----------------------------|

  G|2-------- -----2--- ---------|7-------- -----7--- 7--------|
  D|3--------------3-------------|8--------------8----8--------|
  A|3--------------3-------------|8--------------8----8--------|
  E|1--------------1-------------|6--------------6----6--------|





  e|12---12-- 12---12-- -----12--|10------- 10------- 10-------|
  B|13---13---13---13--------13--|11--------11--------11-------|
  G|12---12---12---12--------12--|10--------10--------10-------|
  D|-----------------------------|-----------------------------|
  A|-----------------------------|-----------------------------|
  E|-----------------------------|-----------------------------|

  e|3----4--- 3----3--- ---------|--------- --------- ---------|
  B|5--------------6-------------|6--------------9-------------|
  G|5--------------5---------7---|7--------------7-------------|
  D|-----------------------------|8--------------8-------------|
  A|-----------------------------|-----------------------------|
  E|-----------------------------|-----------------------------|

  e|--------- --------- ---------|--------- --------- ---------|
  B|-----------------------------|-----------------------------|
  G|-----------------------------|-----------------------------|
  D|-----------------------------|-----------------------------|
  A|3----3----3----3---------3-\-|1--------------1---------0---|
  E|-----------------------------|-----------------------------|

  G|-9------- ------9-- ---------|7-------- -----7--- ---------|
  D|10-------------10------------|8--------------8-------------|
  A|10-------------10------------|8--------------8-------------|
  E|-8--------------8------------|6--------------6-------------|
                    and Doris     Day


    00:35

  e|-8------- ------8-- ---------|10------- -----10-- ---------|
  B|10-------------10------------|11-------------11------------|
  G|10-------------10------------|10-------------10------------|
  D|-----------------------------|-----------------------------|
  A|-----------------------------|-----------------------------|
  E|-----------------------------|-----------------------------|

  e|--------- --------- ---------|--------- --------- -----3---|
  B|----------5H6-------6--------|6----6---------6---------5---|
  G|5---------5---------8--------|7----7---------7---------5---|
  D|7-------------------7--------|8----8---------8-------------|
  A|-----------------------------|-----------------------------|
  E|-----------------------------|-----------------------------|

  e|--------- --------- ---------|--------- --------- ---------|
  B|-----------------------------|-----------------------------|
  G|-----------------------------|-----------------------------|
  D|-----------------------------|-----------------------------|
  A|3---------3---------3--------|1--------------1---------3---|
  E|1---------1---------1----0---|1--------------1-------------|

  G|2-------- -----2--- ---------|7-------- -----7--- ---------|
  D|3--------------3-------------|8--------------8-------------|
  A|3--------------3-------------|8--------------8-------------|
  E|1--------------1-------------|6--------------6-------------|





  e|12------- -----12-- ---------|10------- -----10-- ---------|
  B|13-------------13------------|11-------------11------------|
  G|12-------------12------------|10-------------10------------|
  D|-----------------------------|-----------------------------|
  A|-----------------------------|-----------------------------|
  E|-----------------------------|-----------------------------|

  e|3----4--- 3-------- ---------|--------- --------- ---------|
  B|5--------------6-------------|6--H-8----6------------------|
  G|5--------------8-------------|7---------7--P-8----7--------|
  D|---------------8-------------|8---------8---------8--------|
  A|-----------------------------|-----------------------------|
  E|-----------------------------|-----------------------------|

  e|--------- --------- ---------|--------- --------- ---------|
  B|-----------------------------|-----------------------------|
  G|-----------------------------|-----------------------------|
  D|-----------------------------|-----------------------------|
  A|3---------3----3-------------|1---------1----1-------------|
  E|-----------------------------|-----------------------------|

  G|-9------- -9----9-- ---------|7-------- -----7--- ---------|
  D|10--------10---10------------|8--------------8-------------|
  A|10--------10---10------------|8--------------8-------------|
  E|-8---------8----8------------|6--------------6-------------|
                    Matt      Busby


    00:39

  e|-8------- ------8-- ---------|10------- -----10-- ---------|
  B|10-------------10------------|11-------------11------------|
  G|10-------------10------------|10-------------10------------|
  D|-----------------------------|-----------------------------|
  A|-----------------------------|-----------------------------|
  E|-----------------------------|-----------------------------|

  e|--------- --------- ---------|--------- --------- ---------|
  B|6---------6----6---------6---|----------6---------6--------|
  G|5--H-7----5----8---------8---|7---------7---------7--------|
  D|7---------7----7---------7---|8---------8---------8--------|
  A|-----------------------------|-----------------------------|
  E|-----------------------------|-----------------------------|

  e|--------- --------- ---------|--------- --------- ---------|
  B|-----------------------------|-----------------------------|
  G|-----------------------------|-----------------------------|
  D|-----------------------------|-----------------------------|
  A|-----------------------------|1--------------1----1----1-/-|
  E|1--------------1-------------|-----------------------------|

  G|2-------- -----2--- ---------|7-------- 7----7--- 7----7---|
  D|3--------------3-------------|8---------8----8----8----8---|
  A|3--------------3-------------|8---------8----8----8----8---|
  E|1--------------1-------------|6---------6----6----6----6---|
    Dig  it                       dig  it




  e|12------- -----12-- ---------|10------- -----10-- ---------|
  B|13-------------13------------|11-------------11------------|
  G|12-------------12------------|10-------------10------------|
  D|-----------------------------|-----------------------------|
  A|-----------------------------|-----------------------------|
  E|-----------------------------|-----------------------------|

  e|3----4--- 3----3--- -----3---|--------- --------- ---------|
  B|5--------------6---------6---|6----8----6----8----6----8---|
  G|5--------------5---------5---|7---------7----7----7----7---|
  D|-----------------------------|8---------8----8----8----8---|
  A|-----------------------------|-----------------------------|
  E|-----------------------------|-----------------------------|

  e|--------- --------- ---------|--------- --------- ---------|
  B|-----------------------------|-----------------------------|
  G|-----------------------------|-----------------------------|
  D|-----------------------------|-----------------------------|
  A|3---------3----3---------3---|1---------1----1-------------|
  E|-----------------------------|-----------------------------|

  G|-9------- -9----9-- ------9--|7-------- 7----7--- ---------|
  D|10--------10---10--------10--|8---------8----8-------------|
  A|10--------10---10--------10--|8---------8----8-------------|
  E|-8---------8----8---------8--|6---------6----6-------------|
    Dig  it                       dig  it
                                                               



  e|-8------- ------8-- ---------|10------- -----10-- ---------|
  B|10-------------10------------|11-------------11------------|
  G|10-------------10------------|10-------------10------------|
  D|-----------------------------|-----------------------------|
  A|-----------------------------|-----------------------------|
  E|-----------------------------|-----------------------------|

  e|--------- --------- ---------|--------- --------- ---------|
  B|6----6----6------------------|6--------------6-------------|
  G|5----5----5----5-------------|7--------------7-------------|
  D|7----7----7----7-------------|8--------------8-------------|
  A|-----------------------------|-----------------------------|
  E|-----------------------------|-----------------------------|

  e|--------- --------- ---------|--------- --------- ---------|
  B|-----------------------------|-----------------------------|
  G|-----------------------------|-----------------------------|
  D|-----------------------------|3--------------3-------------|
  A|3----3----3----3---------3---|1--------------1-------------|
  E|1----1----1----1---------1---|-----------------------------|

  G|2-------- 2----2--- -----2---|7-------- -----7--- ---------|
  D|3---------3----3---------3---|8--------------8-------------|
  A|3---------3----3---------3---|8--------------8-------------|
  E|1---------1----1---------1---|6--------------6-------------|

  e|--------- --------- ---------|--------- --------- 6-\------|
  B|-----------------------------|---------------6-------------|
  G|-----------------------------|----------7------------------|
  D|-----------------------------|-----8-----------------------|
  A|-----------------------------|-----------------------------|
  E|-----------------------------|-----------------------------|
    dig            dig            dig  it        dig  it
    That    "Can You Dig It" by   Georgie   Wood. 
         was



  e|12------- -----12-- ---------|10------- -----10-- ---------|
  B|13-------------13------------|11-------------11------------|
  G|12-------------12------------|10-------------10------------|
  D|-----------------------------|-----------------------------|
  A|-----------------------------|-----------------------------|
  E|-----------------------------|-----------------------------|

  e|3-------- 3----3--- 3--------|--------- --------- ---------|
  B|5---------6----6----6--------|6--------------6-------------|
  G|5---------5----5----5--------|7--------------7-------------|
  D|-----------------------------|8--------------8-------------|
  A|-----------------------------|-----------------------------|
  E|-----------------------------|-----------------------------|

  e|--------- --------- ---------|--------- --------- ---------|
  B|-----------------------------|-----------------------------|
  G|-----------------------------|-----------------------------|
  D|-----------------------------|-----------------------------|
  A|3---------1---------1--------|1--------------1-------------|
  E|-----------------------------|-----------------------------|

  G|-9------- ------9-- ---------|7-------- -----7--- ---------|
  D|10-------------10------------|8--------------8-------------|
  A|10-------------10------------|8--------------8-------------|
  E|-8--------------8------------|6--------------6-------------|

  e|3-------- --------- ---------|--------- --------- ---------|
  B|----------3-\----------------|-----------------------------|
  G|--------------------2--------|0----------------------------|
  D|-----------------------------|-----------------------------|
  A|-----------------------------|-----------------------------|
  E|-----------------------------|-----------------------------|
    dig  it         dig           dig  it        dig
         And  now  we'd like to   do            "Hark      The 



  e|--------- --------- ---------|--------- --------- ---------|
  B|-----------------------------|-----------------------------|
  G|-----------------------------|-----------------------------|
  D|-----------------------------|-----------------------------|
  A|-----------------------------|-----------------------------|
  E|-----------------------------|-----------------------------|
    Angels          Come"







   
        
        B  Bend
        R  Release
        /  Slide up
        \  Slide down
        H  Hammer-on
        P  Pull-off
        ~  Vibrato
        +  Harmonic
        x  Mute note
        .  Play note like a dot in standard notation
        ^  Ties two notes together
        (. Pause



       
Tap to rate this tab
 
# A B C D E F G H I J K L M N O P Q R S T U V W X Y Z