Guitaretab - guitar tabs
Song name
# A B C D E F G H I J K L M N O P Q R S T U V W X Y Z

Beatles - Dont Let Me Down tab

    -----------------------------------------------------------

    THE BEATLES -  DON'T LET ME DOWN (Lennon & McCartney). From
                   LET IT BE NAKED album. Released 18th November 
                   2003.
   
    -----------------------------------------------------------

    Tabbed by:PJVillanueva






    Don't let me down  don't let me down
    Don't let me down  don't let me down

    Nobody ever loved me like she does
    Ooh she does  yeah she does

    And if somebody ever loved me like she does
    Ohh she do me  yeah she does.

    Don't let me down  don't let me down
    Don't let me down  don't let me down

    I'm in love for the first time
    Don't you know it's gonna last
    It's a love that lasts forever
    It's a love that has no past

    Don't let me down  don't let me down
    Don't let me down  don't let me down

    And from the first time that she really done me
    Ooh she done me  she done me good.

    I guess nobody ever really done me
    Ooh she done me  she done me good

    Don't let me down  don't let me down  
    Don't let me down  don't let me down 

    Please ....





    4/4 time
                                            X
                                   (.       
                          
  e|------- ------- ------- -------|------- ------- ------- -------|
  B|-------------------------------|-------------------------------|
  G|------------9---9---9----------|-------------------------------|
  D|------------9---911-9----------|-------------------------------|
  A|11------9H11-----H------9---12-|11-----------------------------|
  E|-------------------------------|-------------------------------|
                                                    Don't let   me



    F#m7
  e|2-----2 2-----2 2-2-2-2 2---2-2|2---2-2 2-2-2-2 2-----2 2-2-2--|
  B|2-----2-2-----2-2-2-2-2-2---2-2|2---2-2-2-2-2-2-2-----2-2-2-2--|
  G|2-----2-2-----2-2-2-2-2-2---2-2|2---2-2-2-2-2-2-2-----2-2-2-2--|
  D|2-----2-2-----2-2-2-2-2-2---2-2|2---2-2-2-2-2-2-2-----2-2-2-2--|
  A|4-----4-4-----4-4-4-4-4-4---4-4|4---4-4-4-4-4-4-4-----4-4-4-4--|
  E|2-----2-2-----2-2-2-2-2-2---2-2|2---2-2-2-2-2-2-2-----2-2-2-2--|

  e|-9----- -9----- -9----- -9-----|-9----- -9----- -9----- -------|
  B|10------10------10------10-----|10------10------10-------------|
  G|11------11------11------11-----|11------11------11-------------|
  D|11------11------11------11-----|11------11------11-------------|
  A|-9-------9-------9-------9-----|-9-------9-------9-------------|
  E|-------------------------------|-------------------------------|

  e|------- 14---12 1412--- 12-1412/14-14-- ------- ------- -------|
  B|--------14---12-141214--12-1412/14-1214------------------------|
  G|--------------------14---------|-----H-------------------------|
  D|-------------------------------|-------------------------------|
  A|-------------------------------|-------------------------------|
  E|-------------------------------|-------------------------------|
    down                                            Don't let   me



    E               Esus4           E
  e|0-----0 0---0-0 0-0-0-0 --0-0--|0---0-0 0-0-0-0 0---0-0 0-0-0--|
  B|0-----0-0---0-0-0-0-0-0---0-0--|0---0-0-0-0-0-0-0---0-0-0-0-0--|
  G|1-----1-1---1-1-2-2-2-2---2-2--|1---1-1-1-1-1-1-1---1-1-1-1-1--|
  D|2-----2-2---2-2-2-2-2-2---2-2--|2---2-2-2-2-2-2-2---2-2-2-2-2--|
  A|2-----2-2---2-2-2-2-2-2---2-2--|2---2-2-2-2-2-2-2---2-2-2-2-2--|
  E|0-----0-0---0-0-0-0-0-0---0-0--|0---0-0-0-0-0-0-0---0-0-0-0-0--|

  e|------- ------- ------- -------|------- ------- ------- -------|
  B|----------------9---9----------|-------------------------------|
  G|-9--------------9---9--------9-|----x----9-------9-------------|
  D|-9--------------9---9--------9-|----x----9-------9-------------|
  A|11--------------------------11-|----x---11------11-------------|
  E|-------------------------------|-------------------------------|

  e|------- 7H9---7 0--0--- -------|------- ------- ------- -------|
  B|--------9-------89-97---5---5--|5------------------------------|
  G|----------------/---\-------6--|4------------------------------|
  D|----------------------------7--|6------------------------------|
  A|-------------------------------|-------------------------------|
  E|-------------------------------|-------------------------------|
    down                                            Don't let   me



    F#m7
  e|2---2-2 2---2-2 2-2-2-- 2-2-2--|2-----2 2-2-2-2 2---2-- 2-2-2--|
  B|2---2-2-2---2-2-2-2-2---2-2-2--|2-----2-2-2-2-2-2---2---2-2-2--|
  G|2---2-2-2---2-2-2-2-2---2-2-2--|2-----2-2-2-2-2-2---2---2-2-2--|
  D|2---2-2-2---2-2-2-2-2---2-2-2--|2-----2-2-2-2-2-2---2---2-2-2--|
  A|4---4-4-4---4-4-4-4-4---4-4-4--|4-----4-4-4-4-4-4---4---4-4-4--|
  E|2---2-2-2---2-2-2-2-2---2-2-2--|2-----2-2-2-2-2-2---2---2-2-2--|

  e|------- -9----- -9----9 ----9-9|------- -9----- ------- -------|
  B|--------10------10---10----1010|--------10--------------10-----|
  G|--------11------11---11----1111|--------11--11----------11-----|
  D|--------11------11---11----1111|--------11---------------------|
  A|---------9-------9----9-----9-9|---------9---------------------|
  E|-------------------------------|-------------------------------|

  e|------- 14---12 1412--- 12-1412|14--14- ------- ------- -------|
  B|--------14---12-141214--12-1412|14--14-------------------------|
  G|--------------------14---------|-------------------------------|
  D|-------------------------------|-------------------------------|
  A|-------------------------------|-------------------------------|
  E|-------------------------------|-------------------------------|
    down                                            Don't let   me


                                   
    E               Esus4           
  e|0-----0 0-0---- 0-0-0-0 --0-0--|
  B|0-----0-0-0-----0-0-0-0---0-0--|
  G|1-----1-1-1-----2-2-2-2---2-2--|
  D|2-----2-2-2-----2-2-2-2---2-2--|
  A|2-----2-2-2-----2-2-2-2---2-2--|
  E|0-----0-0-0-----0-0-0-0---0-0--|

  e|------- ------- ------- -------|
  B|-------------------------------|
  G|-9----------9---9---9----------|
  D|-9----------9---911-9----------|
  A|11------9H11-----H------9---12-|
  E|-------------------------------|

  e|------- 7H9---7 0--0--- -------|
  B|--------9-------89-97-5-----5--|
  G|----------------/---\-------6--|
  D|----------------------------7--|
  A|-------------------------------|
  E|-------------------------------|
    down


    5/4
   (.
    E
  e|0------ ------- ------- ------- -------|
  B|0--------------------------------------|
  G|1--------------------------------------|
  D|2--------------------------------------|
  A|2--------------------------------------|
  E|0--------------------------------------|

  e|------- ------- ------- ------- -------|
  B|---------------------------------------|
  G|---------------------------------------|
  D|---------------------------------------|
  A|11-------------------------------------|
  E|---------------------------------------|

  e|------- ------- ------- ------- -------|
  B|5--------------------------------------|
  G|4--------------------------------------|
  D|6--------------------------------------|
  A|---------------------------------------|
  E|---------------------------------------|
        Nobody      ever    loved   like  does,
                                me      she 

    4/4
    00:30
    F#m                             F#m7
  e|2---2-2 2-2-2-2 2---2-- 2-2-2-2|2---2-2 2---2-2 2-2-2-2 2-2-2--|
  B|2---2-2-2-2-2-2-2---2---2-2-2-2|2---2-2-2---2-2-2-2-2-2-2-2-2--|
  G|2---2-2-2-2-2-2-2---2---2-2-2-2|2---2-2-2---2-2-2-2-2-2-2-2-2--|
  D|4---4-4-4-4-4-4-4---4---4-4-4-4|2---2-2-2---2-2-2-2-2-2-2-2-2--|
  A|4---4-4-4-4-4-4-4---4---4-4-4-4|4---4-4-4---4-4-4-4-4-4-4-4-4--|
  E|2---2-2-2-2-2-2-2---2---2-2-2-2|2---2-2-2---2-2-2-2-2-2-2-2-2--|

  e|14-\12- 12--12- -9---9- -9-----|------- ------- ------- -------|
  B|14-\10--10--10--------------10-|10-\7---7---7-\-5---5-\-2-H-5--|
  G|---------------H11--11--11---9-|-9-\6---6---6-\-4---4-\-2------|
  D|-------------------------------|-------------------------------|
  A|-------------------------------|-------------------------------|
  E|-------------------------------|-------------------------------|

  e|14--12- 12--12- -9---9- 9------|------- ------- ------- -------|
  B|10------10--10------10-10---10-|10------10------10------10-----|
  G|11------11--11------11-11------|11--11--11--9----9-------9--9--|
  D|-------------------------------|11------11------11--11--11-----|
  A|-------------------------------|-------------------------------|
  E|-------------------------------|-------------------------------|
                            Ooh she                         yeah  does.
                                  does,                         she 


    Emaj7
  e|0---0-0 0---0-0 0---0-0 0-0-0-0|
  B|0---0-0-0---0-0-0---0-0-0-0-0-0|
  G|1---1-1-1---1-1-1---1-1-1-1-1-1|
  D|1---1-1-1---1-1-1---1-1-1-1-1-1|
  A|2---2-2-2---2-2-2---2-2-2-2-2-2|
  E|0---0-0-0---0-0-0---0-0-0-0-0-0|

  e|4------ ----4-- ------- ----4--|
  B|4-------4---5-------4----------|
  G|4-----------4---------4---4----|
  D|2-----------------------2------|
  A|-------------------------------|
  E|-------------------------------|

  e|4------ ------- ------- -------|
  B|4------------------------------|
  G|4-------------------------9----|
  D|------------------------7---7--|
  A|6-------------------6----------|
  E|-------------------------------|
                                        


   (.

  e|0------ ------- ------- ------- -------|
  B|0--------------------------------------|
  G|1--------------------------------------|
  D|1--------------------------------------|
  A|2--------------------------------------|
  E|0--------------------------------------|

  e|------- ------- ------- ------- -------|
  B|---------------------------------------|
  G|---------------------------------------|
  D|---------------------------------------|
  A|---------------------------------------|
  E|---------------------------------------|

  e|------- ------- ------- ------- -------|
  B|5--------------------------------------|
  G|4--------------------------------------|
  D|6--------------------------------------|
  A|---------------------------------------|
  E|---------------------------------------|
        And if  somebody    loved   like  does 
                                me      she 



    00:42

  e|2---2-2 2---2-- 2-2-2-2 2-2-2-2|2---2-2 2-2-2-2 2-2-2-2 2---2--|  
  B|2---2-2-2---2---2-2-2-2-2-2-2-2|2---2-2-2-2-2-2-2-2-2-2-2---2--|
  G|2---2-2-2---2---2-2-2-2-2-2-2-2|2---2-2-2-2-2-2-2-2-2-2-2---2--|
  D|4---4-4-4---4---4-4-4-4-4-4-4-4|2---2-2-2-2-2-2-2-2-2-2-2---2--|
  A|4---4-4-4---4---4-4-4-4-4-4-4-4|4---4-4-4-4-4-4-4-4-4-4-4---4--|
  E|2---2-2-2---2---2-2-2-2-2-2-2-2|2---2-2-2-2-2-2-2-2-2-2-2---2--|

  e|14-\12- 12--12- -9---9- -9-----|------- ------- ------- -------|
  B|14-\10--10--10--------------10-|10-\7---7---7-\-5---5-\-2-H-5--|
  G|---------------H11--11--11---9-|-9-\6---6---6-\-4---4-\-2------|
  D|-------------------------------|-------------------------------|
  A|-------------------------------|-------------------------------|
  E|-------------------------------|-------------------------------|

  e|14--12- 12--12- -9---9- 9------|------- ------- ------- -------|
  B|10------10--10------10-10---10-|10------10------10------10-----|
  G|11------11--11------11-11------|11--11--11--9----9-------9--9--|
  D|-------------------------------|11------11------11--11--11-----|
  A|-------------------------------|-------------------------------|
  E|-------------------------------|-------------------------------|
                            Ooh she     me                  yeah  does.
                                  do                            she


                                   (.       x       X     X     X

  e|0---0-0 0---0-0 0---0-0 --0-0--|0------ ------- ------- -------|
  B|0---0-0-0---0-0-0---0-0-0-0-0--|0------------------------------|
  G|1---1-1-1---1-1-1H2-2-2-2-2-2--|1------------------------------|
  D|2---2-2-2---2-2-2---2-2-2-2-2--|2------------------------------|
  A|2---2-2-2---2-2-2---2-2-2-2-2--|2------------------------------|
  E|0---0-0-0---0-0-0---0-0-0-0-0--|0------------------------------|

  e|------- 7------ ------- -------|------- ------- ------- -------|
  B|--------9-------9-----9---9-9--|9------------------------------|
  G|--------9-------9-----9---9-9--|9------------------------------|
  D|--------9-------9H11-11--1111--|9------------------------------|
  A|--------7----------------------|-------------------------------|
  E|-------------------------------|-------------------------------|

  e|------- ------- ------- -------|------- ------- ------- -------|
  B|5---------------5-----5-----5--|5------------------------------|
  G|4---------------4-----4-----4--|4------------------------------|
  D|6---------------6H7---7-----7--|6------------------------------|
  A|-------------------------------|-------------------------------|
  E|-------------------------------|-------------------------------|
                                                    Don't let   me



    00:54                                                    
[ Tab from: http://www.guitaretab.com/b/beatles/1083.html ]
  e|2---2-2 2-2-2-- 2-2-2-2 2-2-2--|2---2-2 2-2-2-2 2---2-2 2------| 
  B|2---2-2-2-2-2---2-2-2-2-2-2-2--|2---2-2-2-2-2-2-2---2-2-2------|
  G|2---2-2-2-2-2---2-2-2-2-2-2-2--|2---2-2-2-2-2-2-2---2-2-2------|
  D|4---4-4-4-4-4---4-4-4-4-4-4-4--|2---2-2-2-2-2-2-2---2-2-2------|
  A|4---4-4-4-4-4---4-4-4-4-4-4-4--|4---4-4-4-4-4-4-4---4-4-4------|
  E|2---2-2-2-2-2---2-2-2-2-2-2-2--|2---2-2-2-2-2-2-2---2-2-2------|

  e|-9----9 -9----- 1212-12 -1212--|---12-- 12----- -9----9 -------|
  B|10---10-10------1010-10--1010--|---10---10------10---10--------|
  G|11---11-11-------9-9--9---9-9--|---11---11------11---11--------|
  D|11---11-11------1111-11--1111--|---11---11------11---11--------|
  A|-9----9--9-------9-9------9-9--|----9----9-------9----9--------|
  E|-------------------------------|-------------------------------|

  e|------- 14---12 1412--- 12-1412/14-14-- ------- ------- -------|
  B|--------14---12-141214--12-1412/14-1214------------------------|
  G|--------------------14---------|-----H-------------------------|
  D|-------------------------------|-------------------------------|
  A|-------------------------------|-------------------------------|
  E|-------------------------------|-------------------------------|
    down                                            Don't let   me



    E               Esus4           E
  e|0---0-0 0---0-0 0-0-0-0 0-0-0-0|0---0-0 0-0-0-- 0---0-- 0-0-0--|  
  B|0---0-0-0---0-0-0-0-0-0-0-0-0-0|0---0-0-0-0-0---0---0---0-0-0--|
  G|1---1-1-1---1-1-2-2-2-2-2-2-2-2|1---1-1-1-1-1---1---1---1-1-1--|
  D|2---2-2-2---2-2-2-2-2-2-2-2-2-2|2---2-2-2-2-2---2---2---2-2-2--|
  A|2---2-2-2---2-2-2-2-2-2-2-2-2-2|2---2-2-2-2-2---2---2---2-2-2--|
  E|0---0-0-0---0-0-0-0-0-0-0-0-0-0|0---0-0-0-0-0---0---0---0-0-0--|

  e|------- ------- ------- -------|------- ------- ------- -------|
  B|-------------------------------|-------------------------------|
  G|-9----------9---9---9----------|-------------------------------|
  D|-9----------9---911-9----------|-9------9---9---9--------------|
  A|11------9H11-----H------9---12-|11-----11--11--11--------------|
  E|-------------------------------|-------------------------------|

  e|------- 7H9---7 0-----0 -------|------- ------- ------- -------|
  B|--------9-------7H9P7\5-----5--|5------------------------------|
  G|----------------/---\-------6--|4------------------------------|
  D|----------------------------7--|6------------------------------|
  A|-------------------------------|-------------------------------|
  E|-------------------------------|-------------------------------|
    down                                            Don't let   me



    F#m7
  e|2---2-2 2---2-- 2-2-2-2 2-2-2--|2---2-2 2-2-2-- 2---2-- 2-2-2--|
  B|2---2-2-2---2---2-2-2-2-2-2-2--|2---2-2-2-2-2---2---2---2-2-2--|
  G|2---2-2-2---2---2-2-2-2-2-2-2--|2---2-2-2-2-2---2---2---2-2-2--|
  D|4---4-4-4---4---4-4-4-4-4-4-4--|2---2-2-2-2-2---2---2---2-2-2--|
  A|4---4-4-4---4---4-4-4-4-4-4-4--|4---4-4-4-4-4---4---4---4-4-4--|
  E|2---2-2-2---2---2-2-2-2-2-2-2--|2---2-2-2-2-2---2---2---2-2-2--|

  e|-9----9 -9----- -9----9 --9-9--|------- -9----- 9------ -------|
  B|10---10-10--x---10---10--1010--|--------10-----10--------------|
  G|11---11-11--x---11---11--1111--|--------11--11-11--------------|
  D|11---11-11--x---11---11--1111--|--------11-----11--------------|
  A|-9----9--9-------9----9---9-9--|---------9------9--------------|
  E|-------------------------------|-------------------------------|

  e|------- 14---12 1412--- 12-1412|14--14- ------- ------- -------|
  B|--------14---12-141214--12-1412|14--14-------------------------|
  G|--------------------14---------|-------------------------------|
  D|-------------------------------|-------------------------------|
  A|-------------------------------|-------------------------------|
  E|-------------------------------|-------------------------------|
    down                                            Don't let   me


                                   (.  
    E               Esus4           
  e|0---0-0 0---0-- 0-0-0-0 --0-0--|0------ ------- ------- -------|
  B|0---0-0-0---0---0-0-0-0---0-0--|0------------------------------|
  G|1---1-1-1---1---2-2-2-2---2-2--|1------------------------------|
  D|2---2-2-2---2---2-2-2-2---2-2--|2------------------------------|
  A|2---2-2-2---2---2-2-2-2---2-2--|2------------------------------|
  E|0---0-0-0---0---0-0-0-0---0-0--|0------------------------------|

  e|------- ------- ------- -------|------- ------- ------- -------|
  B|-------------------------------|-------------------------------|
  G|-9----------9---9---9----------|-9-----------------------------|
  D|-9----------9---911-9----------|-9-----------------------------|
  A|11------9H11-----H------9---12-|11-----------------------------|
  E|-------------------------------|-------------------------------|

  e|------- 7H9---7 ------- -------|------- ------- ------- -------|
  B|--------9-------79-97-5-----5--|5------------------------------|
  G|----------------/---\-------6--|4------------------------------|
  D|----------------------------7--|6------------------------------|
  A|-------------------------------|-------------------------------|
  E|-------------------------------|-------------------------------|
    down                                    I'm in  love    for the
                                                                  first

    01:18
    E
  e|0---0-- 0-----0 0---0-- 0-----0|0---0-- 0-----0 0---0-- ----0--|
  B|0---0---0-----0-0---0---0-----0|0---0---0-----0-0---0-------0--|
  G|1---1---1-----1-1---1---1-----1|1---1---1-----1-1---1-------1--|
  D|2---2---2-----2-2---2---2-----2|2---2---2-----2-2---2-------2--|
  A|2---2---2-----2-2---2---2-----2|2---2---2-----2-2---2-------2--|
  E|0---0---0-----0-0---0---0-----0|0---0---0-----0-0---0-------0--|

  e|------- ------- ------- -------|------- ------- ------- -------|
  B|-------------------------------|-------------------------------|
  G|-------------------------------|-------------------------------|
  D|2-------2---1-------2----------|2-----------2-------2-------2--|
  A|------------------------4------|----2--------------------------|
  E|-------------------------------|----------------4-------2------|

  e|4------ 4------ 4------ 4------|4------ 4------ 4------ 4------|
  B|5-------5-------5-------5------|5-------5-------5-------5------|
  G|4-------4-------4-------4------|4-------4-------4-------4------|
  D|-------------------------------|-------------------------------|
  A|-------------------------------|-------------------------------|
  E|-------------------------------|-------------------------------|
        time                                Don't know  it's     last
                                                you         gonna 


    B7
  e|2------ 2-----2 2---2-- 2-----2|2---2-- 2---2-- 2-----2 2---2--|
  B|0-------0-----0-0---0---0-----0|0---0---0---0---0-----0-0---0--|
  G|2-------2-----2-2---2---2-----2|2---2---2---2---2-----2-2---2--|
  D|1-------1-----1-1---1---1-----1|1---1---1---1---1-----1-1---1--|
  A|2-------2-----2-2---2---2-----2|2---2---2---2---2-----2-2---2--|
  E|-------------------------------|-------------------------------|

  e|------- ------- ------- -------|------- ------- ------- -------|
  B|-------------------------------|-------------------------------|
  G|--------------------2----------|1------------------------------|
  D|--------4---1-----------4------|----2-------4---1---2-------1--|
  A|2------------------------------|------------------------4------|
  E|-------------------------------|-------------------------------|

  e|2------ 2------ 2------ 2------|2------ 2------ 2------ 2------|
  B|4-------4-------4-------4------|4-------4-------4-------4------|
  G|4-------4-------4-------4------|4-------4-------4-------4------|
  D|-------------------------------|-------------------------------|
  A|-------------------------------|-------------------------------|
  E|-------------------------------|-------------------------------|
                                            It's  love  that    forever
                                                a           lasts 



  e|2---2-- 2---2-2 2---2-- 2---2-2|2---2-- ----2-- ----2-2 2---2--|
  B|0---0---0---0-0-0---0---0---0-0|0---0-------0-------0-0-0---0--|
  G|2---2---2---2-2-2---2---2---2-2|2---2-------2-------2-2-2---2--|
  D|1---1---1---1-1-1---1---1---1-1|1---1-------1-------1-1-1---1--|
  A|2---2---2---2-2-2---2---2---2-2|2---2-------2-------2-2-2---2--|
  E|-------------------------------|-------------------------------|

  e|------- ------- ------- -------|------- ------- ------- -------|
  B|-------------------------------|-------------------------------|
  G|--------------------2----------|1------------------------------|
  D|--------4---0H1---------4------|----2-------4---1---2-------2--|
  A|2------------------------------|------------------------2H4----|
  E|-------------------------------|-------------------------------|

  e|2------ 2------ 2------ 2------|2------ 2------ 2------ 2------|
  B|4-------4-------4-------4------|4-------4-------4-------4------|
  G|4-------4-------4-------4------|4-------4-------4-------4------|
  D|-------------------------------|-------------------------------|
  A|-------------------------------|-------------------------------|
  E|-------------------------------|-------------------------------|
                                            It's  love  that      no
                                                a           has   


    E               Esus4           E
  e|0---0-0 0-0-0-- 0---0-0 0-0-0--|0------ ------- ------- -------|
  B|0---0-0-0-0-0---0---0-0-0-0-0--|0------------------------------|
  G|1---1-1-1-1-1---2---2-2-2-2-2--|1------------------------------|
  D|2---2-2-2-2-2---2---2-2-2-2-2--|2------------------------------|
  A|2---2-2-2-2-2---2---2-2-2-2-2--|2------------------------------|
  E|0---0-0-0-0-0---0---0-0-0-0-0--|0------------------------------|

  e|------- ------- ------- -------|------- ------- ------- -------|
  B|-------------------------------|-------------------------------|
  G|------------9---9---9----------|-------------------------------|
  D|------------9---911-9-------11-|-9-----------------------------|
  A|2-------9H11-----H------9---12-|11-----------------------------|
  E|0------------------------------|-------------------------------|

  e|4------ 4------ ------- -------|------- ------- ------- -------|
  B|5-------5-------5-------5---5--|5------------------------------|
  G|4-------4-------4-------4---4--|4------------------------------|
  D|----------------7-------7---7--|6------------------------------|
  A|-------------------------------|-------------------------------|
  E|-------------------------------|-------------------------------|
        past                                        Don't       me
                                                        let


    01:41
    down  don't let me down
    Don't let me down  don't let me down

                                              02:06
    And from the first time that she really done me
    Ooh she done me  she done me good.

                                 02:18
    I guess nobody ever really done me
    Ooh she done me  she done me good

                 02:30
    Don't let me down  don't let me down 
    Don't let me down  don't let me down  

    Please ....
    


  e|------- ------- ------- -------|------- ------- ----7-- -------|
  B|-------------------------------|----------------79----97--5---5|
  G|-------------------------------|----------------/------\----6--|
  D|-------------------------------|-------------------------------|
  A|-------------------------------|-------------------------------|
  E|-------------------------------|-------------------------------|

    02:52 PIANO CODA

  e|------- ------- ------- -------|------- ------- --7-7-9 -------|
  B|5H7-----7-9-7-------7-9-7-9----|7-7---9-7------/9-------97-5--5|
  G|--------------9-6-----------9-6|----------9-6-6----------\--6--|
  D|-------------------------------|-------------------------------|
  A|-------------------------------|-------------------------------|
  E|-------------------------------|-------------------------------|
    


  e|------- ------- ------- -7-9-12|12----- 7/9---- 9---7-- -------|
  B|5-----------------5--5-79------|------------------------9-7-5--|
  G|------------4---6------/-------|-------------------------------|
  D|-------------------------------|-------------------------------|
  A|-------------------------------|-------------------------------|
  E|-------------------------------|-------------------------------|



  e|------- ------- ------- -------|------- ------- ------7 -------|
  B|7---7-9-7-------7-9-7-------7-9|7-------7-9-7-------9---987--7-|
  G|----------9-6---------9-6------|--9-6---------9----------\-----|
  D|-------------------------------|-------------------------------|
  A|-------------------------------|-------------------------------|
  E|-------------------------------|-------------------------------|

                                   (.

  e|------- 12--12- 7-7---- ----0--|0------ ------- ------- -------|
  B|5-------121412--7997--5\3---2--|0------------------------------|
  G|---------H------/--P--2-----2--|1------------------------------|
  D|-------------------------------|-------------------------------|
  A|-------------------------------|-------------------------------|
  E|-------------------------------|-------------------------------|



     I have transcribbed this piano coda an octave lower so that it 
     can be played on any type of guitar. Of course, Billy Preston's 
     roulades are necessarily slides here.






        B  Bend
        R  Release
        /  Slide up
        \  Slide down
        H  Hammer-on
        P  Pull-off
        ~  Vibrato
        +  Harmonic
        x  Mute note
        .  Play note like a dot in standard notation
        ^  Ties two notes together
        (. Pause




Related for Dont Let Me Down tab
×
Best way to learn
"Dont Let Me Down"