Song name
# A B C D E F G H I J K L M N O P Q R S T U V W X Y Z

Beatles - Maxwells Silver Hammer tab

Help us improve GuitareTab! Take a short survey!
e|---------------|----------------|------------|----------|----------|----------|-----------|
B|---------------|------------0-1-|-0----------|----------|-0-------0|-2-0------|-----------|
G|---------------|--------0-2-----|---0-0---0--|----------|---0-0-2--|-----2-0--|-----2-----|
D|--4--4--4--2-0-|-4--2-4---------|-------4----|----------|----------|----------|-4-----4--2|
A|---------------|----------------|------------|----------|----------|----------|-----------|
E|---------------|----------------|------------|----------|----------|----------|-----------|

e|---------------|----------------|------------|----------|----------|----------|-----------|
B|---------------|------------0-1-|-0----------|----------|-0-------0|-2-0------|-----------|
G|---------------|--------0-2-----|---0-0-0-0--|----------|---0-0-2--|-----2-0--|-----2-----|
D|--4--4--4--2-0-|-4--2-4---------|------------|----------|----------|----------|-4-----4--2|
A|---------------|----------------|------------|----------|----------|----------|-----------|
E|---------------|----------------|------------|----------|----------|----------|-----------|

e|--------|--------------|---------------|----------------|--------||-------------|
B|--------|---------0--3-|--2-0----------|-------0--1--2--|--------||-------3--2--|
G|--------|-------1------|---------------|-2--2-----------|--------||----2--------|
D|--------|--2--2--------|-------2-----2-|----------------|--------||-4-----------|
A|------2-|--------------|---------------|----------------|--------||-------------|
E|--------|--------------|---------------|----------------|--------||-------------|

e|------------|--------------|--------|-------0----|--------------|----------------|
B|-0----------|---------0--3-|--------|----0-----3-|-2--0---------|----------------|
G|----2-------|-------0------|--------|-0----------|-------2--0---|-------2--------|
D|------4--2-0|-2---2--------|--------|------------|------------4-|-2--0-----4\2--0|
A|------------|--------------|--------|------------|--------------|----------------|
E|------------|--------------|--------|------------|--------------|----------------|
Related for Maxwells Silver Hammer tab