Guitaretab - guitar tabs
Song name
# A B C D E F G H I J K L M N O P Q R S T U V W X Y Z

Beatles - Please Mister Postman tab

    ---------------------------------------------------------------

    BEATLES - PLEASE MISTER POSTMAN (Holland) From WITH THE BEATLES 
              album. Released on November 22nd 1963.

    ---------------------------------------------------------------

    Tabbed by:PJVillanueva






    I prefer to credit the song as it was on the original recording
    , but If you buy the CD right now you'll see that it's credited
    to "Dobbin, Garrett, Garman & Brianbert". Allan W. Pollack also
    comments on his Notes that Mark Lewisohn provides even another 
    writing team from which Holland was supposedly part. I wish I 
    could give an answer to that, but I haven't any reference about 
    any of those two last creditings. 
    There's no solo here and George uses just fifth chords, mostly 
    on the lower strings, to support John's strumming. That's why I 
    decided to tab John's guitar alone, as heard on the record. 

    




   (Wait!)
    Oh yes, wait a minute Mister Postman 
   (Wait!) 
    Wait Mister Postman 
   (Mister postman look and see) Oh yeah 
   (You got a letter in the bag for me) 
    Please please Mister Postman 
   (I've been waiting a long long time) Oh yeah         
   (Since I heard from that gal of mine) 

    There must be some word today 
    From my girlfriend so far away 
    Please Mister Postman look and see 
    If there's a letter, a letter for me 

    I've been standing here waiting Mister Postman 
    So patiently for just a card 
    or just a letter 
    Saying she's returning home to me
 
    Please Mister Postman 
   (Mister Postman look and see) Oh yeah 
   (If there's a letter in the bag for me)
    Please please Mister Postman 
   (I've been waiting a long long time) Oh yeah 
   (Since I heard from that gal of mine) 

    So many days you passed me by 
    See the tear standing in my eyes 
    You didn't stop to make me feel better 
    By leaving me a card or a letter 

    Mister Postman - Mister Postman look and see 
    Is there a letter - Oh yeah for me - in the bag for me 
    I've - been waiting a long long - such a long long time 
    Since I heard from that girlfriend of mine 

    
    You gotta wait a minute wait a minute oh yeah
   (Wait a minute wait a minute Mister Postman)

    Wait a minute wait a minute oh yeah
   (Wait a minute wait a minute (Mister Postman)
    
    You gotta wait a minute wait a minute Oh yeah
   (Wait a minute wait a minute Mister Postman)

    Check and see one more time for me 
 
    You gotta wait a minute wait a minute oh yeah
   (Wait a minute wait a minute Mister Postman)

    Wait a minute wait a minute oh yeah
   (Wait a minute wait a minute Mister Postman)

    Mister Postman Oh yeah
   (Wait a minute wait a minute Mister Postman)

    Deliver the letter, the sooner the bet 

    You gotta wait a minute wait a minute Oh yeah
   (Wait a minute wait a minute Mister Postman)

    Wait a minute wait a minute - Oooooohh - Oh yeah you gotta
   (Wait a minute wait a minute Mister Postman)

    Wait a minute wait a minute Mister postman
    Wait a minute wait a minute Aaaaaaaaaaahh  ....




                                                                x
                           
  e|------- ------- ------- -------|------- ------- ------- -------|
  B|-------------------------------|-------------------------------|
  G|-------------------------------|-------------------------------|
  D|-------------------------------|-------------------------------|
  A|-------------------------------|-------------------------------|
  E|-------------------------------|-------------------------------|


    INTRO

    X       x   x           x       X       x   x           x   X

  e|------- ------- ------- -------|------- ------- ------- -------|
  B|-------------------------------|-------------------------------|
  G|-------------------------------|-------------------------------|
  D|-------------------------------|-------------------------------|
  A|-------------------------------|-------------------------------|
  E|-------------------------------|-------------------------------|
            Oh      yes     wait    minute  Mister  Postman
                                a
    Wait!

    X       x   x           x       X       x   x       x x x x x

  e|------- ------- ------- -------|------- ------- ------- -------|
  B|-------------------------------|-------------------------------|
  G|-------------------------------|-------------------------------|
  D|-------------------------------|-------------------------------|
  A|-------------------------------|-------------------------------|
  E|-------------------------------|-------------------------------|
            Wait ....                       Mister  Postman 
    Wait!

    00:08   
    A
  e|0------ 0------ 0------ 0------|0------ 0---0-- 0------ 0------|
  B|2-------2-------2-------2------|2-------2---2---2-------2------|
  G|2-------2-------2-------2------|2-------2---2---2-------2------|
  D|2-------2-------2-------2------|2-------2---2---2-------2------|
  A|0-------0-------0-------0------|0-------0---0---0-------0------|
  E|-------------------------------|-------------------------------|
                                                        Oh     
            Mister  Postman         look        see
                                        and

    F#m
  e|2------ 2---2-- 2------ 2------|2------ 2---2-- ----2-- 2------|
  B|2-------2---2---2-------2------|2-------2---2-------2---2------|
  G|2-------2---2---2-------2------|2-------2---2-------2---2------|
  D|4-------4---4---4-------4------|4-------4---4-------4---4------|
  A|4-------4---4---4-------4------|4-------4---4-------4---4------|
  E|2-------2---2---2-------2------|2-------2---2-------2---2------|
        yeah                                    Please          please
        You've  a   letter  in  the bag     for me
            got 

    D                                                           E
  e|2------ 2---2-- 2---2-- 2------|2---2-- 2---2-- ----2-- 2---0--|
  B|3-------3---3---3---3---3------|3---3---3---3-------3---3---0--|
  G|2-------2---2---2---2---2------|2---2---2---2-------2---2---1--|
  D|0-------0---0---0---0---0------|0---0---0---0-------0---0---2--|
  A|-------------------------------|----------------------------2--|
  E|-------------------------------|----------------------------0--|
            Mister  Postman ....                        Oh
        I've        waiting     a   long        time
            been                        long

    
  e|0------ 0---0-- 0---0-- 0---0--|0---0-- 0---0-- ----0-- 0---0--|
  B|0-------0---0---0---0---0---0--|0---0---0---0-------0---0---0--|
  G|1-------1---1---1---1---1---1--|1---1---1---1-------1---1---1--|
  D|2-------2---2---2---2---2---2--|2---2---2---2-------2---2---2--|
  A|2-------2---2---2---2---2---2--|2---2---2---2-------2---2---2--|
  E|0-------0---0---0---0---0---0--|0---0---0---0-------0---0---0--|
    yeah
            Since   heard   from    gal of      mine
                I               that

    00:24

  e|0------ 0---0-- 0---0-- 0---0--|0------ 0------ 0---0-- 0------|
  B|2-------2---2---2---2---2---2--|2-------2-------2---2---2------|
  G|2-------2---2---2---2---2---2--|2-------2-------2---2---2------|
  D|2-------2---2---2---2---2---2--|2-------2-------2---2---2------|
  A|0-------0---0---0---0---0---0--|0-------0-------0---0---0------|
  E|-------------------------------|-------------------------------|
            There       be      some        today 
                must                word
    Oooooooooooooooooooooooooooooooooooooooooooooooooooohhh


  e|2---2-- 2------ 2---2-- 2------|2------ 2---2-- 2---2-- 2---0--|
  B|2---2---2-------2---2---2------|2-------2---2---2---2---2---0--|
  G|2---2---2-------2---2---2------|2-------2---2---2---2---2---0--|
  D|4---4---4-------4---4---4------|4-------4---4---4---4---4------|
  A|4---4---4-------4---4---4------|4-------4---4---4---4---4------|
  E|2---2---2-------2---2---2------|2-------2---2---2---2---2------|
            from    girlfriend      so  far away
                my
    Oooooooooooooooooooooooooooooooooooooooooooooooooooohhh


  e|2---2-- 2------ 2---2-- 2------|2------ 2---2-- ------- ----0--|
  B|3---3---3-------3---3---3------|3-------3---3-------3-------0--|
  G|2---2---2-------2---2---2------|2-------2---2-------2---2---0--|
  D|0---0---0-------0---0---0------|0-------0---0-------0---0------|
  A|-------------------------------|-------------------------------|
  E|-------------------------------|-------------------------------|
        Please      Postman         look        see
            Mister                      and
    Oooooooooooooooooooooooooooooooooooooooooooooooooooohhh


  e|0------ 0------ 0---0-- 0---0--|0---0-- 0---0-- 0---0-- 0---0--|
  B|0-------0-------0---0---0---0--|0---0---0---0---0---0---0---0--|
  G|1-------1-------1---1---1---1--|1---1---1---1---1---1---1---1--|
  D|2-------2-------2---2---2---2--|2---2---2---2---2---2---2---2--|
  A|2-------2-------2---2---2---2--|2---2---2---2---2---2---2---2--|
  E|0-------0-------0---0---0---0--|0---0---0---0---0---0---0---0--|
        If  there's letter      a   letter  for me
                a
    Oooooooooooooooooooooooooooooooooooooooooooooooooooohhh


    00:39                                                           

  e|0------ 0---0-- 0---0-- 0---0--|0------ 0------ 0---0-- 0------| 
  B|2-------2---2---2---2---2---2--|2-------2-------2---2---2------|
  G|2-------2---2---2---2---2---2--|2-------2-------2---2---2------|
  D|2-------2---2---2---2---2---2--|2-------2-------2---2---2------|
  A|0-------0---0---0---0---0---0--|0-------0-------0---0---0------|
  E|-------------------------------|-------------------------------|
        I've        standing        waiting Mister  Postman 
            been            here
    Oooooooooooooooooooooooooooooooooooooooooooooooooooohhh


  e|2---2-- 2------ 2---2-- 2------|2------ 2---2-- 2---2-- 2---0--|
  B|2---2---2-------2---2---2------|2-------2---2---2---2---2---0--|
  G|2---2---2-------2---2---2------|2-------2---2---2---2---2---0--|
  D|4---4---4-------4---4---4------|4-------4---4---4---4---4------|
  A|4---4---4-------4---4---4------|4-------4---4---4---4---4------|
  E|2---2---2-------2---2---2------|2-------2---2---2---2---2------|
        so ....                     patiently
    Oooooooooooooooooooooooooooooooooooooooooooooooooooohhh


  e|2---2-- 2------ 2---2-- 2---2--|2------ 2---2-- 2---2-- 2---0--|
  B|3---3---3-------3---3---3---3--|3-------3---3---3---3---3---0--|
  G|2---2---2-------2---2---2---2--|2-------2---2---2---2---2---0--|
  D|0---0---0-------0---0---0---0--|0-------0---0---0---0---0------|
  A|-------------------------------|-------------------------------|
  E|-------------------------------|-------------------------------|
        for just    card                or  just    letter
                a                               a
    Oooooooooooooooooooooooooooooooooooooooooooooooooooohhh


  e|0---0-- 0---0-- 0---0-- 0---0--|0---0-- 0---0-- 0---0-- 0------|
  B|0---0---0---0---0---0---0---0--|0---0---0---0---0---0---0------|
  G|1---1---1---1---1---1---1---1--|1---1---1---1---1---1---1------|
  D|2---2---2---2---2---2---2---2--|2---2---2---2---2---2---2------|
  A|2---2---2---2---2---2---2---2--|2---2---2---2---2---2---2------|
  E|0---0---0---0---0---0---0---0--|0---0---0---0---0---0---0------|
            saying  she's           home    to me       Please
                        returning                           Mister
    Oooooooooooooooooooooooooooooooooooooooooooooooooooohhh

    00:55                                                            

  e|0------ 0---0-- 0------ 0---0--|0------ 0---0-- 0---0-- 0------|
  B|2-------2---2---2-------2---2--|2-------2---2---2---2---2------|
  G|2-------2---2---2-------2---2--|2-------2---2---2---2---2------|
  D|2-------2---2---2-------2---2--|2-------2---2---2---2---2------|
  A|0-------0---0---0-------0---0--|0-------0---0---0---0---0------|
  E|-------------------------------|-------------------------------|
    Postman                                             Oh     
            Mister  Postman         look        see
                                        and


  e|2------ 2---2-- 2------ 2---2--|2------ 2---2-- 2---2-- 2------|
  B|2-------2---2---2-------2---2--|2-------2---2---2---2---2------|
  G|2-------2---2---2-------2---2--|2-------2---2---2---2---2---0--|
  D|4-------4---4---4-------4---4--|4-------4---4---4---4---4---0--|
  A|4-------4---4---4-------4---4--|4-------4---4---4---4---4------|
  E|2-------2---2---2-------2---2--|2-------2---2---2---2---2------|
        yeah                                    Please          please
        You've  a   letter  in  your         for me
            got                     bag


  e|2------ 2---2-- 2---2-- 2---2--|2------ 2---2-- 2---2-- 2------|
  B|3-------3---3---3---3---3---3--|3-------3---3---3---3---3---0--|
  G|2-------2---2---2---2---2---2--|2-------2---2---2---2---2---0--|
  D|0-------0---0---0---0---0---0--|0-------0---0---0---0---0------|
  A|-------------------------------|-------------------------------|
  E|-------------------------------|-------------------------------|
            Mister  Postman ....                        Oh
        I've        waiting     a   long        time
            been                        long

[ Tab from: http://www.guitaretab.com/b/beatles/1208.html ]
  e|0---0-- 0---0-- 0---0-- 0---0--|0---0-- 0---0-- ----0-- 0---0--|
  B|0---0---0---0---0---0---0---0--|0---0---0---0-------0---0---0--|
  G|1---1---1---1---1---1---1---1--|1---1---1---1-------1---1---1--|
  D|2---2---2---2---2---2---2---2--|2---2---2---2-------2---2---2--|
  A|2---2---2---2---2---2---2---2--|2---2---2---2-------2---2---2--|
  E|0---0---0---0---0---0---0---0--|0---0---0---0-------0---0---0--|
    yeah
            Since   heard   from    gal of      mine
                I               that

    01:10                                                         

  e|0------ 0------ 0---0-- 0---0--|0---0-- 0------ 0---0-- 0------|
  B|2-------2-------2---2---2---2--|2---2---2-------2---2---2------|
  G|2-------2-------2---2---2---2--|2---2---2-------2---2---2------|
  D|2-------2-------2---2---2---2--|2---2---2-------2---2---2------|
  A|0-------0-------0---0---0---0--|0---0---0-------0---0---0------|
  E|-------------------------------|-------------------------------|
        So  many    days        you passed  me  by 
    Oooooooooooooooooooooooooooooooooooooooooooooooooooohhh


  e|2------ 2---2-- 2---2-- 2---2--|2------ 2---2-- ----2-- 2---0--|
  B|2-------2---2---2---2---2---2--|2-------2---2-------2---2---0--|
  G|2-------2---2---2---2---2---2--|2-------2---2-------2---2---0--|
  D|4-------4---4---4---4---4---4--|4-------4---4-------4---4------|
  A|4-------4---4---4---4---4---4--|4-------4---4-------4---4------|
  E|2-------2---2---2---2---2---2--|2-------2---2-------2---2------|
            See the tear    standing    my      eyes
                                    in
    Oooooooooooooooooooooooooooooooooooooooooooooooooooohhh


  e|2---2-- 2------ 2---2-- 2------|2---2-- 2------ 2---2-- 2------|
  B|3---3---3-------3---3---3------|3---3---3-------3---3---3---0--|
  G|2---2---2-------2---2---2------|2---2---2-------2---2---2---0--|
  D|0---0---0-------0---0---0------|0---0---0-------0---0---0------|
  A|-------------------------------|-------------------------------|
  E|-------------------------------|-------------------------------|
        You didn't  stop        to  make    feel    better
                                        me
    Oooooooooooooooooooooooooooooooooooooooooooooooooooohhh


  e|0---0-- 0---0-- 0---0-- 0---0--|0---0-- 0---0-- 0------ 0------|
  B|0---0---0---0---0---0---0---0--|0---0---0---0---0-------0------|
  G|1---1---1---1---1---1---1---1--|1---1---1---1---1-------1------|
  D|2---2---2---2---2---2---2---2--|2---2---2---2---2-------2------|
  A|2---2---2---2---2---2---2---2--|2---2---2---2---2-------2------|
  E|0---0---0---0---0---0---0---0--|0---0---0---0---0-------0------|
        By  leaving me          a   card    a   letter      Mister
                                        or
    Oooooooooooooooooooooooooooooooooooooooooooooooooooohhh

    01:26                                                        

  e|0------ 0---0-- 0---0-- 0------|0------ 0---0-- 0---0-- -------|
  B|2-------2---2---2---2---2------|2-------2---2---2---2----------|
  G|2-------2---2---2---2---2------|2-------2---2---2---2----------|
  D|2-------2---2---2---2---2------|2-------2---2---2---2----------|
  A|0-------0---0---0---0---0------|0-------0---0---0---0----------|
  E|-------------------------------|-------------------------------|
    Postman                         look             
                                        and     see
            Mister  Postman         look        see
                                        and

  e|2------ 2---2-- 2---2-- 2---2--|2------ 2------ 2---2-- 2---0--|
  B|2-------2---2---2---2---2---2--|2-------2-------2---2---2---0--|
  G|2-------2---2---2---2---2---2--|2-------2-------2---2---2---0--|
  D|4-------4---4---4---4---4---4--|4-------4-------4---4---4------|
  A|4-------4---4---4---4---4---4--|4-------4-------4---4---4------|
  E|2-------2---2---2---2---2---2--|2-------2-------2---2---2------|
        Is  there       Oh          yeah    for me           
                a ...
        Is  there   letter  in  the bag     for me
                a

  e|2------ 2---2-- 2---2-- 2------|2---2-- 2------ 2---2-- ----0--|
  B|3-------3---3---3---3---3------|3---3---3-------3---3-------0--|
  G|2-------2---2---2---2---2------|2---2---2-------2---2-------1--|
  D|0-------0---0---0---0---0------|0---0---0-------0---0-------2--|
  A|-------------------------------|----------------------------2--|
  E|-------------------------------|----------------------------0--|
        I've        waiting     for such    long
            been                        a       time   
        I've        waiting     a   long        time
            been                        long

  e|0---0-- 0------ 0---0-- ----0--|0---0-- 0---0-- 0---0-- 0------|
  B|0---0---0-------0---0-------0--|0---0---0---0---0---0---0------|
  G|1---1---1-------1---1-------1--|1---1---1---1---1---1---1------|
  D|2---2---2-------2---2-------2--|2---2---2---2---2---2---2------|
  A|2---2---2-------2---2-------2--|2---2---2---2---2---2---2------|
  E|0---0---0-------0---0-------0--|0---0---0---0---0---0---0------|
            Since   heard   from    girlfriend  mine   You've
                I               that        of              gotta


    01:42                                                          

  e|0---0-- 0---0-- 0---0-- 0------|0---0-- 0---0-- 0---0-- 0---0--|
  B|2---2---2---2---2---2---2------|2---2---2---2---2---2---2---2--|
  G|2---2---2---2---2---2---2------|2---2---2---2---2---2---2---2--|
  D|2---2---2---2---2---2---2------|2---2---2---2---2---2---2---2--|
  A|0---0---0---0---0---0---0------|0---0---0---0---0---0---0---0--|
  E|-------------------------------|-------------------------------|
    wait    minute  wait    minute      Oh      yeah
        a               a
    wait    minute  wait    minute          Mister  Postman
        a               a

  e|2---2-- 2---2-- 2---2-- 2---2--|----2-- 2---2-- 2---2-- 2---0--|
  B|2---2---2---2---2---2---2---2--|----2---2---2---2---2---2---0--|
  G|2---2---2---2---2---2---2---2--|----2---2---2---2---2---2---0--|
  D|4---4---4---4---4---4---4---4--|----4---4---4---4---4---4------|
  A|4---4---4---4---4---4---4---4--|----4---4---4---4---4---4------|
  E|2---2---2---2---2---2---2---2--|----2---2---2---2---2---2------|
    wait    minute  wait    minute      Oh      yeah    You gotta
        a               a
    wait    minute  wait    minute          Mister  Postman
        a               a

  e|2------ 2---2-- 2------ 2---2--|2---2-- 2---2-- 2---2-- 2---0--|
  B|3-------3---3---3-------3---3--|3---3---3---3---3---3---3---0--|
  G|2-------2---2---2-------2---2--|2---2---2---2---2---2---2---1--|
  D|0-------0---0---0-------0---0--|0---0---0---0---0---0---0---2--|
  A|-------------------------------|----------------------------2--|
  E|-------------------------------|----------------------------0--|
    wait    minute  wait    minute      Oh      yeah        
        a               a
    wait    minute  wait    minute          Mister  Postman
        a               a

     X      x   x           x       X       x   x           x   x

  e|0------ ------- ------- -------|------- ------- ------- -------|
  B|0------------------------------|-------------------------------|
  G|1------------------------------|-------------------------------|
  D|2------------------------------|-------------------------------|
  A|2------------------------------|-------------------------------|
  E|0------------------------------|-------------------------------|
    Check       see         one more        for me      You gotta
        and                         time

    01:58                                                          

  e|0------ 0---0-- 0---0-- 0---0--|0---0-- 0---0-- 0---0-- 0---0--|
  B|2-------2---2---2---2---2---2--|2---2---2---2---2---2---2---0--|
  G|2-------2---2---2---2---2---2--|2---2---2---2---2---2---2---0--|
  D|2-------2---2---2---2---2---2--|2---2---2---2---2---2---2------|
  A|0-------0---0---0---0---0---0--|0---0---0---0---0---0---0------|
  E|-------------------------------|-------------------------------|
    wait    minute  wait    minute      Oh      yeah
        a               a
    wait    minute  wait    minute          Mister  Postman
        a               a

  e|2---2-- 2------ 2---2-- 2---2--|----2-- 2---2-- 2---2-- 2---0--|
  B|2---2---2-------2---2---2---2--|----2---2---2---2---2---2---0--|
  G|2---2---2-------2---2---2---2--|----2---2---2---2---2---2---0--|
  D|4---4---4-------4---4---4---4--|----4---4---4---4---4---4------|
  A|4---4---4-------4---4---4---4--|----4---4---4---4---4---4------|
  E|2---2---2-------2---2---2---2--|----2---2---2---2---2---2------|
    wait    minute  wait    minute      Oh      yeah        Mister
        a               a
    wait    minute  wait    minute          Mister  Postman
        a               a

  e|2------ 2------ 2------ 2---2--|2---2-- 2---2-- 2---2-- 2---0--|
  B|3-------3-------3-------3---3--|3---3---3---3---3---3---3---0--|
  G|2-------2-------2-------2---2--|2---2---2---2---2---2---2---1--|
  D|0-------0-------0-------0---0--|0---0---0---0---0---0---0---2--|
  A|-------------------------------|----------------------------2--|
  E|-------------------------------|----------------------------0--|
    Postman                             Oh      yeah            Deliver
    wait    minute  wait    minute          Mister  Postman
        a               a

    X       x   x           x       X       x   x           x

  e|0------ ------- ------- -------|------- ------- ------- -------|
  B|0------------------------------|-------------------------------|
  G|1------------------------------|-------------------------------|
  D|2------------------------------|-------------------------------|
  A|2------------------------------|-------------------------------|
  E|0------------------------------|-------------------------------|
            the letter          the sooner  the bet     You gotta


    02:13                                                           
    A6  A ....              
  e|2---0-- 2---0-- 0---0-- 2---0--|0---0-- 2---0-- 0---0-- 0---0--|
  B|2---2---2---2---2---2---2---2--|2---2---2---2---2---2---2---0--|
  G|2---2---2---2---2---2---2---2--|2---2---2---2---2---2---2---0--|
  D|2---2---2---2---2---2---2---2--|2---2---2---2---2---2---2------|
  A|0---0---0---0---0---0---0---0--|0---0---0---0---0---0---0------|
  E|-------------------------------|-------------------------------|
    wait    minute  wait    minute      Oh      yeah
        a               a
    wait    minute  wait    minute          Mister  Postman
        a               a

    F#m F#m7 ....
  e|2---2-- 2---2-- 2---2-- 2------|2---2-- 2---2-- ----2-- 2---0--|  
  B|2---3---2---2---2---3---2------|2---2---2---2-------2---2---0--|
  G|2---2---2---2---2---2---2------|2---2---2---2-------2---2---0--|
  D|4---4---4---4---4---4---4------|4---4---4---4-------4---4------|
  A|4---4---4---4---4---4---4------|4---4---4---4-------4---4------|
  E|2---2---2---2---2---2---2------|2---2---2---2-------2---2------|
    wait    minute  wait    minute      Oh      yeah    you gotta
        a               a               Ooooooooohh
    wait    minute  wait    minute          Mister  Postman
        a               a
   
    D           D5 ....                                         E
  e|2------ 2------ 2---2-- 2------|----2-- 2------ 2---2-- 2---0--|
  B|3-------3---3---3---3---3---3--|----3---3---3---3---3---3---0--|
  G|2-------2---2---2---2---2---2--|----2---2---2---2---2---2---1--|
  D|0-------0---0---0---0---0---0--|----0---0---0---0---0---0---2--|
  A|-------------------------------|----------------------------2--|
  E|-------------------------------|----------------------------0--|
    wait    minuta  wait    minute      Oh      yeah        gotta 
        a               a
    wait    minute  wait    minute          Mister  Postman
        a               a

                                    Eadd9   E ....
  e|0------ 0---0-- 0---0-- 0---0--|2------ 0------ 0---0-- 2------|
  B|0-------0---0---0---0---0---0--|0-------0-------0---0---0------|
  G|1-------1---1---1---1---1---1--|1-------1-------1---1---1------|
  D|2-------2---2---2---2---2---2--|2-------2-------2---2---2------|
  A|2-------2---2---2---2---2---2--|2-------2-------2---2---2------|
  E|0-------0---0---0---0---0---0--|0-------0-------0---0---0------|
    Wait    minute  wait    minute      Aaaaaaaaaaaahhh You gotta
        a               a
    ..........................  Fade out ..........................


    A6          A ....
  e|2------ 2---0-- 2---0-- 2---0--|2------ ------- ------- -------|
  B|2-------2---2---2---2---2---2--|2------------------------------|
  G|2-------2---2---2---2---2---2--|2------------------------------|
  D|2-------2---2---2---2---2---2--|2------------------------------|
  A|0-------0---0---0---0---0---0--|0------------------------------|
  E|-------------------------------|-------------------------------|
    wait    wait    minute  wait    minute
                a               a     
    wait    wait    minute          minute
                a               a         
    .......................................






        B  Bend
        R  Release
        /  Slide up
        \  Slide down
        H  Hammer-on
        P  Pull-off
        ~  Vibrato
        +  Harmonic
        x  Mute note
        .  Play note like a dot in standard notation
        ^  Ties two notes together
        (. Pause


Related for Please Mister Postman tab
×
Best way to learn
"Please Mister Postman"