Song name
# A B C D E F G H I J K L M N O P Q R S T U V W X Y Z

Beatles - Please Please Me tab

   -------------------------------------------------------------

   THE BEATLES - PLEASE PLEASE ME (McCartney/Lennon) From THE
                 BEATLES ANTHOLOGY I Disc I # 24. Released on
                 November, 21st 1995.

   -------------------------------------------------------------

   Tabbed by:PJVillanueva

  The version released on the single and on PLEASE PLEASE ME
  album is an edit of different takes. Lennon's harmonica and
  the vocal parts are too high on the mix and on the verses the
  rhythm guitar part is lost. Luckily the one on the ANTHOLOGY,
  recorded at EMI on september, 11th 1962 lets us hear it and
  that's the reason why I chose to tab this one, although there
  is no harmonica here and Ringo is not playing, but Andy White,
  who had just contributed to the recording of P.S. I LOVE YOU,
  which would be issued as B side of LOVE ME DO. Everyone agrees
  that John's harmonica is essential to PLEASE PLEASE ME, as it
  was to LOVE ME DO, but I think this is a great document too.

  Last night I said these words to my girl
  I know you never even try, girl
  Come on, come on, come on, come on
  Please, please me, woah yeah, like I please you

  You don't need me to show the way, love
  Why do I always have to say, love
  Come on, come on, come on, come on
  Please, please me, woah yeah, like I please you

  I don't want to sound complaining
  But you know there's always rain in my heart
  I do all the pleasing with you,
  It's so hard to reason with you
  Woah yeah, why do you make me blue?

  Last night I said these words to my girl
  I know you never even try, girl
  Come on, come on, come on, come on
  Please, please me, woah yeah, like I please you
  Woah yeah, like I please you
  Woah yeah, like I please you

     INTRO

                                                            X
                                                            Esus4
  e|------- ------- ------- -------|------- ------- ------- -------|
  B|-------------------------------|-------------------------------|
  G|-------------------------------|------------------------2------|
  D|-------------------------------|------------------------2------|
  A|-------------------------------|-------------------------------|
  E|-------------------------------|-------------------------------|

    E
  e|0------ 0---0-- 0------ 0---0--|0------ 0------ 0------ 0------|
  B|0-------0---0---0-------0---0--|0-------0-------0-------0------|
  G|1-------1---1---1-------1---1--|1-------1-------1-------1------|
  D|2-------2---2---2-------2---2--|2-------2-------2-------2------|
  A|2-------2---2---2-------2---2--|2-------2-------2-------2------|
  E|0-------0---0---0-------0---0--|0-------0-------0-------0------|

  e|------- 12----- 11----- 9------|7------ ----9-- 7------ -------|
  B|-------------------------------|------------------------9------|
  G|---------9-------8------6------|4-----------6---4--------------|
  D|-------------------------------|------------------------6------|
  A|-------------------------------|-------------------------------|
  E|-------------------------------|-------------------------------|


                                                        x x X x x

  e|0------ 0------ 0---0-- 0---0--|0------ 0------ 0------ 0------|
  B|0-------0-------0---0---0---0--|0-------0-------0-------0------|
  G|1-------1-------1---1---1---1--|1-------1-------1-------1------|
  D|2-------2-------2---2---2---2--|2-------2-------2-------2------|
  A|2-------2-------2---2---2---2--|2-------2-------2-------2------|
  E|0-------0-------0---0---0---0--|0-------0-------0-------0------|

  e|------- 12----- 11----- 9------|7------ ----9-- 7------ -------|
  B|-------------------------------|------------------------9------|
  G|---------9-------8------6------|4-----------6---4--------------|
  D|-------------------------------|------------------------6------|
  A|-------------------------------|-------------------------------|
  E|-------------------------------|-------------------------------|

    VERSE
    00:07

  e|0------ 0------ 0------ 0---0--|0------ 0---0-- 0------ 0------|
  B|0-------0-------0-------0---0--|0-------0---0---0-------0------|
  G|1-------1-------1-------1---1--|1-------1---1---1-------1------|
  D|2-------2-------2-------2---2--|2-------2---2---2-------2------|
  A|2-------2-------2-------2---2--|2-------2---2---2-------2------|
  E|0-------0-------0-------0---0--|0-------0---0---0-------0------|
            Last    night   I       said    these   words   to
  e|------- ------- ------- -------|------- ------- ------- -------|
  B|-------------------------------|-------------------------------|
  G|9------------------------------|-------------------------------|
  D|-------------------------------|-------------------------------|
  A|7------------------------------|-------------------------------|
  E|-------------------------------|-------------------------------|

    A               E                   G       A       B
  e|0------ 0---0-- 0------ 0---0--|----3-- 3---5-- 5---7-- 7---7--|
  B|2-------2---2---0-------0---0--|----3---3---5---5---7---7---7--|
  G|2-------2---2---1-------1---1--|----4---4---6---6---8---8---8--|
  D|2-------2---2---2-------2---2--|----5---5---7---7---9---9---9--|
  A|0-------0---0---2-------2---2--|----5---5---7---7---9---9---9--|
  E|----------------0-------0---0--|----3---3---5---5---7---7---7--|
    my              girl
  e|------- ------- ------- -------|------- ------- ------- -------|
  B|-------------------------------|-------------------------------|
  G|-------------------------------|-------------------------------|
  D|-------------------------------|----5---5---7---7---9---9---9--|
  A|-------------------------------|----5---5---7---7---9---9---9--|
  E|-------------------------------|----3---3---5---5---7---7---7--|

    E
  e|0------ 0------ 0---0-- 0------|0------ 0---0-- 0------ 0------|
  B|0-------0-------0---0---0------|0-------0---0---0-------0------|
  G|1-------1-------1---1---1------|1-------1---1---1-------1------|
  D|2-------2-------2---2---2------|2-------2---2---2-------2------|
  A|2-------2-------2---2---2------|2-------2---2---2-------2------|
  E|0-------0-------0---0---0------|0-------0---0---0-------0------|
            I       know    you     never           even
  e|0------ ------- ------- -------|------- ------- ------- -------|
  B|0------------------------------|-------------------------------|
  G|1------------------------------|-------------------------------|
  D|2------------------------------|-------------------------------|
  A|2------------------------------|-------------------------------|
  E|0------------------------------|-------------------------------|


                            x x x x x
    A               E
  e|0------ 0------ 0------ 0-0-0-0|0------ ------- ------- -------|
  B|2-------2-------0-------0-0-0-0|0------------------------------|
  G|2-------2-------1-------1-1-1-1|1------------------------------|
  D|2-------2-------2-------2-2-2-2|2------------------------------|
  A|0-------0-------2-------2-2-2-2|2------------------------------|
  E|----------------0-------0-0-0-0|0------------------------------|
    try,            girl                                        Come
  e|------- ------- ------- -------|------- ------- ------- -------|
  B|-------------------------------|-------------------------------|
  G|-------------------------------|-------------------------------|
  D|-------------------------------|----------------2---2----------|
  A|-------------------------------|------------------------2---2--|
  E|-------------------------------|--------0---0------------------|

    REFRAIN
    00:21
    A                               F#m
  e|5------ ----5-- ----5-- 5------|2------ 2---2-- ----2-- 2------|
  B|5-----------5-------5---5------|2-------2---2-------2---2------|
  G|6-----------6-------6---6------|2-------2---2-------2---2------|
  D|7-----------7-------7---7------|4-------4---4-------4---4------|
  A|7-----------7-------7---7------|4-------4---4-------4---4------|
  E|5-----------5-------5---5------|2-------2---2-------2---2------|
    on                         come on                          come
            Come on                         come on
  e|------- ------- ------- -------|------- ------- ------- -------|
  B|-------------------------------|-------------------------------|
  G|-------------------------------|-------------------------------|
  D|-------------------------------|-------------------------------|
  A|4-----------4-----------4---3--|4-------4---4---------------3--|
  E|-------------------------------|-------------------------------|

    Dbm                             A
  e|4------ 4---4-- ----4-- 4------|5------ 5---5-- ----5-- 5------|
  B|5-------5---5-------5---5------|5-------5---5-------5---5------|
  G|6-------6---6-------6---6------|6-------6---6-------6---6------|
  D|6-------6---6-------6---6------|7-------7---7-------7---7------|
  A|4-------4---4-------4---4------|7-------7---7-------7---7------|
  E|-------------------------------|5-------5---5-------5---5------|
    on                         come on                      Please,
            come on                         come on
  e|------- ------- ------- -------|------- ------- ------- -------|
  B|-------------------------------|-------------------------------|
  G|-------------------------------|-------------------------------|
  D|-------------------------------|-------------------------------|
  A|4-----------4-----------4---3--|4-----------4------------------|
  E|-------------------------------|-------------------------------|

    E                               A               B
  e|0------ 0---0-- 0---0-- 0------|5------ 5------ 7------ 7------|
  B|0-------0---0---0---0---0------|5-------5-------7-------7------|
  G|1-------1---1---1---1---1------|6-------6-------8-------8------|
  D|2-------2---2---2---2---2------|7-------7-------9-------9------|
  A|2-------2---2---2---2---2------|7-------7-------9-------9------|
  E|0-------0---0---0---0---0------|5-------5-------7-------7------|
    please          me      woah    yeah       like I       please


    E                               A               B
  e|0---0-- 0---0-- 0---0-- 0------|5------ 5------ 7------ 7------|
  B|0---0---0---0---0---0---0------|5-------5-------7-------7------|
  G|1---1---1---1---1---1---1------|6-------6-------8-------8------|
  D|2---2---2---2---2---2---2------|7-------7-------9-------9------|
  A|2---2---2---2---2---2---2------|7-------7-------9-------9------|
  E|0---0---0---0---0---0---0------|5-------5-------7-------7------|
    you
  e|------- 12----- 11----- 9------|7------ ----9-- 7------ -------|
  B|-------------------------------|------------------------9------|
  G|---------9-------8------6------|4-----------6---4--------------|
  D|-------------------------------|------------------------6------|
  A|-------------------------------|-------------------------------|
  E|0------------------------------|-------------------------------|

    VERSE
    00:34

  e|0------ 0------ 0------ 0------|0------ 0---0-- 0------ 0---0--|
  B|0-------0-------0-------0------|0-------0---0---0-------0---0--|
  G|1-------1-------1-------1------|1-------1---1---1-------1---1--|
  D|2-------2-------2-------2------|2-------2---2---2-------2---2--|
  A|2-------2-------2-------2------|2-------2---2---2-------2---2--|
  E|0-------0-------0-------0------|0-------0---0---0-------0---0--|
            You     don't   need    me      to      show    the
  e|------- ------- ------- -------|------- ------- ------- -------|
  B|-------------------------------|-------------------------------|
  G|9------------------------------|-------------------------------|
  D|-------------------------------|-------------------------------|
  A|7------------------------------|-------------------------------|
  E|-------------------------------|-------------------------------|


  e|0------ 0------ 0------ 0---0--|----3-- 3---5-- 5---7-- 7---7--|
  B|2-------2-------0-------0---0--|----3---3---5---5---7---7---7--|
  G|2-------2-------1-------1---1--|----4---4---6---6---8---8---8--|
  D|2-------2-------2-------2---2--|----5---5---7---7---9---9---9--|
  A|0-------0-------2-------2---2--|----5---5---7---7---9---9---9--|
  E|----------------0-------0---0--|----3---3---5---5---7---7---7--|
    way,            love
  e|------- ------- ------- -------|------- ------- ------- -------|
  B|-------------------------------|-------------------------------|
  G|-------------------------------|-------------------------------|
  D|-------------------------------|----5---5---7---7---9---9---9--|
  A|-------------------------------|----5---5---7---7---9---9---9--|
  E|-------------------------------|----3---3---5---5---7---7---7--|


  e|0------ 0------ 0------ 0---0--|0------ 0---0-- 0------ 0------|
  B|0-------0-------0-------0---0--|0-------0---0---0-------0------|
  G|1-------1-------1-------1---1--|1-------1---1---1-------1------|
  D|2-------2-------2-------2---2--|2-------2---2---2-------2------|
  A|2-------2-------2-------2---2--|2-------2---2---2-------2------|
  E|0-------0-------0-------0---0--|0-------0---0---0-------0------|
            Why     do      I       always          have    to
  e|7------ ------- ------- -------|------- ------- ------- -------|
  B|9------------------------------|-------------------------------|
  G|9------------------------------|-------------------------------|
  D|9------------------------------|-------------------------------|
  A|7------------------------------|-------------------------------|
  E|-------------------------------|-------------------------------|


                        x x x x x x x

  e|0------ 0------ 0------ 0-0-0-0|0------ ------- ------- -------|
  B|2-------2-------0-------0-0-0-0|0------------------------------|
  G|2-------2-------1-------1-1-1-1|1------------------------------|
  D|2-------2-------2-------2-2-2-2|2------------------------------|
  A|0-------0-------2-------2-2-2-2|2------------------------------|
  E|----------------0-------0-0-0-0|0------------------------------|
     say,           love                                        Come
  e|------- ------- ------- -------|------- ------- ------- -------|
  B|-------------------------------|-------------------------------|
  G|-------------------------------|-------------------------------|
  D|-------------------------------|----------------2---2----------|
  A|-------------------------------|------------------------2---2--|
  E|-------------------------------|--------0---0------------------|

    REFRAIN
    00:48

  e|5------ ----5-- ----5-- 5------|2------ 2---2-- ------- 2------|
  B|5-----------5-------5---5------|2-------2---2-----------2------|
  G|6-----------6-------6---6------|2-------2---2-----------2------|
  D|7-----------7-------7---7------|4-------4---4-----------4------|
  A|7-----------7-------7---7------|4-------4---4-----------4------|
  E|5-----------5-------5---5------|2-------2---2-----------2------|
    on                         come on                          come
            Come on                         come on
  e|------- ------- ------- -------|------- ------- ------- -------|
  B|-------------------------------|-------------------------------|
  G|-------------------------------|-------------------------------|
  D|-------------------------------|-------------------------------|
  A|4-----------4-----------4---3--|4-----------4-----------4---3--|
  E|-------------------------------|-------------------------------|


  e|4------ 4---4-- ----4-- 4------|5------ 5---5-- ------- -------|
  B|5-------5---5-------5---5------|5-------5---5------------------|
  G|6-------6---6-------6---6------|6-------6---6------------------|
  D|6-------6---6-------6---6------|7-------7---7------------------|
  A|4-------4---4-------4---4------|7-------7---7------------------|
  E|-------------------------------|5-------5---5------------------|
    on                         come on                      Please,
            come on                         come on
  e|------- ------- ------- -------|------- ------- ------- -------|
  B|-------------------------------|-------------------------------|
  G|-------------------------------|-------------------------------|
  D|-------------------------------|-------------------------------|
  A|4-------4---4-------4---4---3--|4-----------4------------------|
  E|-------------------------------|-------------------------------|


  e|0------ 0---0-- 0------ 0---0--|5------ 5---5-- 7------ 7---7--|
  B|0-------0---0---0-------0---0--|5-------5---5---7-------7---7--|
  G|1-------1---1---1-------1---1--|6-------6---6---8-------8---8--|
  D|2-------2---2---2-------2---2--|7-------7---7---9-------9---9--|
  A|2-------2---2---2-------2---2--|7-------7---7---9-------9---9--|
  E|0-------0---0---0-------0---0--|5-------5---5---7-------7---7--|
    please          me      woah    yeah       like I       please

                                       xxxxxx  xxxxxX  xxxxxX   X

  e|0---0-- 0------ 0---0-- 0------|5------ ------- ------- -------|
  B|0---0---0-------0---0---0------|5------------------------------|
  G|1---1---1-------1---1---1------|6------------------------------|
  D|2---2---2-------2---2---2------|7------------------------------|
  A|2---2---2-------2---2---2------|7------------------------------|
  E|0---0---0-------0---0---0------|5------------------------------|
    you
  e|------- 12----- 11----- 9------|7------ ------- ------- -------|
  B|-------------------------------|-------------------------------|
  G|---------9-------8------6------|4------------------------------|
  D|-------------------------------|-------------------------------|
  A|-------------------------------|-------------------------------|
  E|-------------------------------|-------------------------------|

    BRIDGE
    01:01
    A                               B
  e|0---0-- 0---0-- 0---0-- 0------|2------ 2---2-- 2---2-- 2------|
  B|2---2---2---2---2---2---2------|4-------4---4---4---4---4------|
  G|2---2---2---2---2---2---2------|4-------4---4---4---4---4------|
  D|2---2---2---2---2---2---2------|4-------4---4---4---4---4------|
  A|0---0---0---0---0---0---0------|2-------2---2---2---2---2------|
  E|-------------------------------|-------------------------------|
    I   don't   to  sound           but you know    always  rain
            want        complaining             there's         in
  e|5------ ------- ------- -------|7------ ------- ------- -------|
  B|5------------------------------|7------------------------------|
  G|6------------------------------|8------------------------------|
  D|7------------------------------|9------------------------------|
  A|7------------------------------|9------------------------------|
  E|5------------------------------|7------------------------------|

    E
  e|0---0-- 0---0-- 0---0-- 0------|0------ 0------ 0------ 0------|
  B|0---0---0---0---0---0---0------|0-------0-------0-------0------|
  G|1---1---1---1---1---1---1------|1-------1-------1-------1------|
  D|2---2---2---2---2---2---2------|2-------2-------2-------2------|
  A|2---2---2---2---2---2---2------|2-------2-------2-------2------|
  E|0---0---0---0---0---0---0------|0-------0-------0-------0------|
    my              heart
                                           (In      my      heart)
  e|0------ ------- ------- -------|0------ ------- ------- -------|
  B|0------------------------------|0------------------------------|
  G|1------------------------------|1------------------------------|
  D|2------------------------------|2------------------------------|
  A|2------------------------------|2------------------------------|
  E|0------------------------------|0------------------------------|

    A                               B
  e|0---0-- 0------ 0---0-- 0------|2---2-- 2---2-- 2---2-- 2------|
  B|2---2---2-------2---2---2------|4---4---4---4---4---4---4------|
  G|2---2---2-------2---2---2------|4---4---4---4---4---4---4------|
  D|2---2---2-------2---2---2------|4---4---4---4---4---4---4------|
  A|0---0---0-------0---0---0------|2---2---2---2---2---2---2------|
  E|-------------------------------|-------------------------------|
    I   do  all the pleasing    you it's    hard    reason      with
                            with        so      to
  e|5------ ------- ------- -------|7------ ------- ------- -------|
  B|5------------------------------|7------------------------------|
  G|6------------------------------|8------------------------------|
  D|7------------------------------|9------------------------------|
  A|7------------------------------|9------------------------------|
  E|5------------------------------|7------------------------------|

    E                               A               B
  e|0------ 0---0-- 0---0-- 0---0--|5------ 5------ 7------ 7---7--|
  B|0-------0---0---0---0---0---0--|5-------5-------7-------7---7--|
  G|1-------1---1---1---1---1---1--|6-------6-------8-------8---8--|
  D|2-------2---2---2---2---2---2--|7-------7-------9-------9---9--|
  A|2-------2---2---2---2---2---2--|7-------7-------9-------9---9--|
  E|0-------0---0---0---0---0---0--|5-------5-------7-------7---7--|
    you                     Woah    yeah        Why do  you make
                                                                me
  e|0------ ------- ------- -------|5------ ------- 7------ -------|
  B|0------------------------------|5---------------7--------------|
  G|1------------------------------|6---------------8--------------|
  D|2------------------------------|7---------------9--------------|
  A|2------------------------------|7---------------9--------------|
  E|0------------------------------|5---------------7--------------|

    E                               A               B
  e|0------ 0---0-- 0---0-- 0------|5------ 5------ 7------ 7------|
  B|0-------0---0---0---0---0------|5-------5-------7-------7------|
  G|1-------1---1---1---1---1------|6-------6-------8-------8------|
  D|2-------2---2---2---2---2------|7-------7-------9-------9------|
  A|2-------2---2---2---2---2------|7-------7-------9-------9------|
  E|0-------0---0---0---0---0------|5-------5-------7-------7------|
    blue
  e|------- 12----- 11----- -------|------- ------- ------- -------|
  B|------------------------12-----|14--------------12------12-----|
  G|---------9-------8-------------|------------13-----------------|
  D|-------------------------9-----|11---------------9-------9-----|
  A|-------------------------------|------------11-----------------|
  E|-------------------------------|-------------------------------|

    VERSE
    01:18

  e|0---0-- 0---0-- 0------ 0---0--|0------ 0---0-- 0------ 0---0--|
  B|0---0---0---0---0-------0---0--|0-------0---0---0-------0---0--|
  G|1---1---1---1---1-------1---1--|1-------1---1---1-------1---1--|
  D|2---2---2---2---2-------2---2--|2-------2---2---2-------2---2--|
  A|2---2---2---2---2-------2---2--|2-------2---2---2-------2---2--|
  E|0---0---0---0---0-------0---0--|0-------0---0---0-------0---0--|
            Last    night   I       said    these   words   to
  e|------- ------- ------- -------|------- ------- ------- -------|
  B|-------------------------------|-------------------------------|
  G|9------------------------------|-------------------------------|
  D|-------------------------------|-------------------------------|
  A|7------------------------------|-------------------------------|
  E|-------------------------------|-------------------------------|


  e|0------ 0---0-- 0------ 0---0--|----3-- 3---5-- 5---7-- 7---7--|
  B|2-------2---2---0-------0---0--|----3---3---5---5---7---7---7--|
  G|2-------2---2---1-------1---1--|----4---4---6---6---8---8---8--|
  D|2-------2---2---2-------2---2--|----5---5---7---7---9---9---9--|
  A|0-------0---0---2-------2---2--|----5---5---7---7---9---9---9--|
  E|----------------0-------0---0--|----3---3---5---5---7---7---7--|
    my              girl
  e|------- ------- ------- -------|------- ------- ------- -------|
  B|-------------------------------|-------------------------------|
  G|-------------------------------|-------------------------------|
  D|-------------------------------|----5---5---7---7---9---9---9--|
  A|-------------------------------|----5---5---7---7---9---9---9--|
  E|-------------------------------|----3---3---5---5---7---7---7--|


  e|0------ 0------ 0---0-- 0------|0------ 0---0-- 0------ 0---0--|
  B|0-------0-------0---0---0------|0-------0---0---0-------0---0--|
  G|1-------1-------1---1---1------|1-------1---1---1-------1---1--|
  D|2-------2-------2---2---2------|2-------2---2---2-------2---2--|
  A|2-------2-------2---2---2------|2-------2---2---2-------2---2--|
  E|0-------0-------0---0---0------|0-------0---0---0-------0---0--|
            I       know    you     never           even
  e|7------ ------- ------- -------|------- ------- ------- -------|
  B|9------------------------------|-------------------------------|
  G|9------------------------------|-------------------------------|
  D|9------------------------------|-------------------------------|
  A|7------------------------------|-------------------------------|
  E|-------------------------------|-------------------------------|


                            x x x x x

  e|0------ 0---0-- 0------ 0-0-0-0|0------ ------- ------- -------|
  B|2-------2---2---0-------0-0-0-0|0------------------------------|
  G|2-------2---2---1-------1-1-1-1|1------------------------------|
  D|2-------2---2---2-------2-2-2-2|2------------------------------|
  A|0-------0---0---2-------2-2-2-2|2------------------------------|
  E|----------------0-------0-0-0-0|0------------------------------|
    try,            girl                                        Come
  e|------- ------- ------- -------|------- ------- ------- -------|
  B|-------------------------------|-------------------------------|
  G|-------------------------------|-------------------------------|
  D|-------------------------------|----------------2---2----------|
  A|-------------------------------|------------------------2---2--|
  E|-------------------------------|--------0---0------------------|

    REFRAIN
    00:21

  e|5------ 5---5-- ----5-- 5------|2------ 2---2-- ----2-- 2------|
  B|5-------5---5-------5---5------|2-------2---2-------2---2------|
  G|6-------6---6-------6---6------|2-------2---2-------2---2------|
  D|7-------7---7-------7---7------|4-------4---4-------4---4------|
  A|7-------7---7-------7---7------|4-------4---4-------4---4------|
  E|5-------5---5-------5---5------|2-------2---2-------2---2------|
    on                         come on                          come
            Come on                         come on
  e|------- ------- ------- -------|------- ------- ------- -------|
  B|-------------------------------|-------------------------------|
  G|-------------------------------|-------------------------------|
  D|-------------------------------|-------------------------------|
  A|4-----------4-------4---4---3--|4-----------4-------4-------3--|
  E|-------------------------------|-------------------------------|


  e|4------ ----4-- ----4-- 4------|5------ 5---5-- ----5-- 5------|
  B|5-----------5-------5---5------|5-------5---5-------5---5------|
  G|6-----------6-------6---6------|6-------6---6-------6---6------|
  D|6-----------6-------6---6------|7-------7---7-------7---7------|
  A|4-----------4-------4---4------|7-------7---7-------7---7------|
  E|-------------------------------|5-------5---5-------5---5------|
    on                         come on                      Please,
            come on                         come on
  e|------- ------- ------- -------|------- ------- ------- -------|
  B|-------------------------------|-------------------------------|
  G|-------------------------------|-------------------------------|
  D|-------------------------------|-------------------------------|
  A|4-----------4-------4---4---3--|4-----------4------------------|
  E|-------------------------------|-------------------------------|

    CODA
    01:39
    E                               A               B
  e|0------ 0---0-- 0---0-- 0------|5------ 5------ 7------ 7---7--|
  B|0-------0---0---0---0---0------|5-------5-------7-------7---7--|
  G|1-------1---1---1---1---1------|6-------6-------8-------8---8--|
  D|2-------2---2---2---2---2------|7-------7-------9-------9---9--|
  A|2-------2---2---2---2---2------|7-------7-------9-------9---9--|
  E|0-------0---0---0---0---0------|5-------5-------7-------7---7--|
    please          me      woah    yeah       like I       please


    E                               A               B
  e|0------ 0---0-- 0------ 0------|5------ 5------ 7------ 7------|
  B|0-------0---0---0-------0------|5-------5-------7-------7------|
  G|1-------1---1---1-------1------|6-------6-------8-------8------|
  D|2-------2---2---2-------2------|7-------7-------9-------9------|
  A|2-------2---2---2-------2------|7-------7-------9-------9------|
  E|0-------0---0---0-------0------|5-------5-------7-------7------|
    please          me      woah    yeah       like I       please
    you
  e|------- 12----- 11----- 9------|7------ ----9-- 7------ -------|
  B|-------------------------------|------------------------9------|
  G|---------9-------8------6------|4-----------6---4--------------|
  D|-------------------------------|------------------------6------|
  A|-------------------------------|-------------------------------|
  E|0------------------------------|-------------------------------|

    E                               A               B
  e|0------ 0---0-- 0---0-- 0------|5------ 5------ 7------ 7------|
  B|0-------0---0---0---0---0------|5-------5-------7-------7------|
  G|1-------1---1---1---1---1------|6-------6-------8-------8------|
  D|2-------2---2---2---2---2------|7-------7-------9-------9------|
  A|2-------2---2---2---2---2------|7-------7-------9-------9------|
  E|0-------0---0---0---0---0------|5-------5-------7-------7------|
    please          me      woah    yeah       like I       please
    you
  e|------- 12----- 11----- 9------|7------ ----9-- 7------ -------|
  B|-------------------------------|------------------------9------|
  G|---------9-------8------6------|4-----------6---4--------------|
  D|-------------------------------|------------------------6------|
  A|-------------------------------|-------------------------------|
  E|0------------------------------|-------------------------------|


    X       x x x x X       x x x x X       x x x x X       x x x x
    E               G               C               B
  e|0------ ------- 3------ -------|8------ ------- 7------ -------|
  B|0---------------3--------------|8---------------7--------------|
  G|1---------------4--------------|9---------------8--------------|
  D|2---------------5--------------10---------------9--------------|
  A|2---------------5--------------10---------------9--------------|
  E|0---------------3--------------|8---------------7--------------|
    you
  e|0------ ------- 3------ -------|8------ ------- 7------ -------|
  B|0---------------3--------------|8---------------7--------------|
  G|1---------------4--------------|9---------------8--------------|
  D|2---------------5--------------10---------------9--------------|
  A|2---------------5--------------10---------------9--------------|
  E|0---------------3--------------|8---------------7--------------|

   (.
    X
    E
  e|0------ ------- ------- -------|------- ------- ------- -------|
  B|0------------------------------|-------------------------------|
  G|1------------------------------|-------------------------------|
  D|2------------------------------|-------------------------------|
  A|2------------------------------|-------------------------------|
  E|0------------------------------|-------------------------------|

  e|0------ ------- ------- -------|------- ------- ------- -------|
  B|0------------------------------|-------------------------------|
  G|1------------------------------|-------------------------------|
  D|2------------------------------|-------------------------------|
  A|2------------------------------|-------------------------------|
  E|0------------------------------|-------------------------------|



        B  Bend
        R  Release
        /  Slide up
        \  Slide down
        H  Hammer-on
        P  Pull-off
        ~  Vibrato
        +  Harmonic
        x  Mute note
        .  Play note like a dot in standard notation
        ^  Ties two notes together
        (. Pause
Tap to rate this tab
 
# A B C D E F G H I J K L M N O P Q R S T U V W X Y Z