Song name
# A B C D E F G H I J K L M N O P Q R S T U V W X Y Z

Beatles - Ps I Love You tab

  ------------------------------------------------------------

  THE BEATLES - P.S. I LOVE YOU (McCartney/Lennon) From PLEASE 
                PLEASE ME album. Released on March, 22nd 1963.
   
  ------------------------------------------------------------

  Tabbed by:PJVillanueva






  Andy White sat in on drums on this number, as in LOVE ME DO,
  Ringo just playing maracas. It sounds like a latin ballad,  
  halfway between a bolero and a cha cha cha (listen to White's 
  rim shots acompaniment - some people said it was woodblocks - 
  and also its typical tempo and ending). This is not a pastiche 
  cha, however. Paul used on it an original device extending the
  refrain with a Bb chord (bVI) half a step up A dominant chord 
  (V) and then resolving to tonic through C (bVII) (bVI bVII I). 
  Both things seem very interesting at this stage of the Beatles 
  career:
 
  
  I                  iim                I
  D                  Em                 D
  Treasure these few words 'til we're together, keep

  V                  vim                V             
  A                  Bm                 A             
  all my love      forever,             P.S.,   I love 

  bVI                        bVI  bVII  I
  Bb                         Bb   C     D
  You.                       you  you   you.

  Usually the dominant (V) resolves to the tonic (I).




  (For those who find this a little messy, maybe the examples 
  at the bottom will help).





  As I write this letter,
  Send my love to you
  Remember that I'll always
  Be in love with you.
  
  Treasure these few words 'til we're together,
  Keep all my love forever,
  P.S., I love you.
  You, you, you.

  I'll be coming home again to you, love,
  And 'til the day I do, love, 
  P.S., I love you.
  You, you, you.

  As I write this letter,
  Send my love to you
  Remember that I'll always
  Be in love with you.

  Treasure these few words 'til we're together,
  Keep all my love forever,
  P.S., I love you.
  You, you, you.

  As I write this letter, (Oh oh oh)
  Send my love to you, (You know I want you to)
  Remember that I'll always, (Yeah)
  Be in love with you.

  I'll be coming home again to you, love,
  And 'til the day I do, love, 
  P.S., I love you.
  You, you, you.
  You, you, you.
  I love you.



        George plays the same chords than John an octave up.

    INTRO

    G               Db              D                               
  e|3---3-- 3------ 1---1-- 1------|2---2-- 2---2-- 2---2-- 2---0--|
  B|3---3---3-------2---2---2------|3---3---3---3---3---3---3---0--|
  G|4---4---4-------1---1---1------|2---2---2---2---2---2---2---0--|
  D|5---5---5-------3---3---3------|4---4---4---4---4---4---4---0--|
  A|5---5---5----------------------|-------------------------------|
  E|3---3---3----------------------|-------------------------------|
    As      I       write           letter,
                                this
  e|10--10- ------- ------- -------|10--10- 10--10- 10--10- 10--10-|
  B|12--12----------9-------9------|10--10--10--10--10--10--10--10-|
  G|12--12---------10------10------|11--11--11--11--11--11--11--11-|
  D|12--12---------11------11------|12--12--12--12--12--12--12--12-|
  A|10--10---------11------11------|12--12--12--12--12--12--12--12-|
  E|----------------9-------9------|10--10--10--10--10--10--10--10-|



    G               Db              D  
  e|3---3-- 3------ 1---1-- 1------|2------ 2---2-- 2---2-- 2------|
  B|3---3---3-------2---2---2------|3-------3---3---3---3---3------|
  G|4---4---4-------1---1---1------|2-------2---2---2---2---2------|
  D|5---5---5-------3---3---3------|4-------4---4---4---4---4------|
  A|5---5---5----------------------|-------------------------------|
  E|3---3---3----------------------|-------------------------------|
    Send    my      love        to  you,                        Remember
  e|10--10- ------- ------- -------|10----- 10--10- 10--10- 10-----|
  B|12--12----------9-------9------|10------10--10--10--10--10-----|
  G|12--12---------10------10------|11------11--11--11--11--11-----|
  D|12--12---------11------11------|12------12--12--12--12--12-----|
  A|10--10---------11------11------|12------12--12--12--12--12-----|
  E|----------------9-------9------|10------10--10--10--10--10-----|

 

    G               Db              D  
  e|3---3-- ------- 1------ 1------|2------ 2---2-- 2---2-- 2---2--|
  B|3---3-----------2-------2------|3-------3---3---3---3---3---3--|
  G|4---4-----------1-------1------|2-------2---2---2---2---2---2--|
  D|5---5-----------3-------3------|4-------4---4---4---4---4---4--|
  A|5---5--------------------------|-------------------------------|
  E|3---3--------------------------|-------------------------------|
                    that            always
                                I'll
  e|10--10- ------- ------- -------|10----- 10--10- 10----- 10-----|
  B|12--12----------9--------------|10------10--10--10------10-----|
  G|12--12---------10--------------|11------11--11--11------11-----|
  D|12--12---------11--------------|12------12--12--12------12-----|
  A|10--10---------11--------------|12------12--12--12------12-----|
  E|----------------9--------------|10------10--10--10------10-----|



                    A               D
  e|2------ 2------ 0------ 0------|----2-- 2---2-- 2---2-- 2------|
  B|3-------3-------2-------2------|3---3---3---3---3---3---3------|
  G|2-------2-------2-------2------|2---2---2---2---2---2---2------|
  D|4-------4-------2-------2------|0---0---0---0---0---0---0------|
  A|----------------0-------0------|-------------------------------|
  E|-------------------------------|-------------------------------|
    be      in      love     with   you
  e|10----- 10----- ------- -------|10--10- 10--10- 10--10- 10-----|
  B|10------10-----10------10------|10--10--10--10--10--10--10-----|
  G|11------11------9-------9------|11--11--11--11--11--11--11-----|
  D|12------12-----11------11------|12--12--12--12--12--12--12-----|
  A|12------12-----12------12------|12--12--12--12--12--12--12-----|
  E|10------10---------------------|10--10--10--10--10--10--10-----|


    VERSE
    00:14
                                    Em
  e|2---2-- 2---2-- 2---2-- 2---0--|0------ 0---0-- 0---0-- 0---0--|
  B|3---3---3---3---3---3---3---0--|0-------0---0---0---0---0---0--|
  G|2---2---2---2---2---2---2---0--|0-------0---0---0---0---0---0--|
  D|0---0---0---0---0---0---0------|2-------2---2---2---2---2------|
  A|-------------------------------|2-------2---2---2---2---2------|
  E|-------------------------------|0-------0---0---0---0---0------|
    Treasure        these   few     words       till    we're   together
  e|10--10- 10----- 10----- 10--7--|7------ 7------ 7------ 7------|
  B|10--10--10------10------10--8--|8-------8-------8-------8------|
  G|11--11--11------11------11--9--|9-------9-------9-------9------|
  D|12--12--12------12------12-----|9-------9-------9-------9------|
  A|12--12--12------12------12-----|7-------7-------7-------7------|
  E|10--10--10------10------10-----|-------------------------------|



    D                               A
  e|2---2-- 2---2-- ----2-- 2------|0---0-- 0---0-- ----0-- 0------|
  B|3---3---3---3-------3---3------|2---2---2---2-------2---2---0--|
  G|2---2---2---2-------2---2------|2---2---2---2-------2---2---0--|
  D|0---0---0---0-------0---0------|2---2---2---2-------2---2---0--|
  A|-------------------------------|0---0---0---0-------0---0------|
  E|-------------------------------|-------------------------------|
                                    all         my      love    forever
                                Keep
  e|10----- 10--10- 10--10- 10-----|5------ 5---5-- ----5-- 5---5--|
  B|10------10--10--10--10--10-----|5-------5---5-------5---5---5--|
  G|11------11--11--11--11--11-----|6-------6---6-------6---6---6--|
  D|12------12--12--12--12--12-----|7-------7---7-------7---7---7--|
  A|12------12--12--12--12--12-----|7-------7---7-------7---7---7--|
  E|10------10--10--10--10--10-----|5-------5---5-------5---5---5--|



    Bm                              A
  e|2---2-- 2---2-- 2---2-- 2------|0------ 0---0-- 0---0-- 0------|
  B|3---3---3---3---3---3---3---0--|2-------2---2---2---2---2------|
  G|4---4---4---4---4---4---4---0--|2-------2---2---2---2---2------|
  D|4---4---4---4---4---4---4---0--|2-------2---2---2---2---2------|
  A|2---2---2---2---2---2---2------|0-------0---0---0---0---0------|
  E|-------------------------------|-------------------------------|
                                    P.      S.          I       love
  e|7------ 7------ 7------ 7---7--|5------ 5---5-- 5---5-- 5------|
  B|7-------7-------7-------7---7--|5-------5---5---5---5---5------|
  G|7-------7-------7-------7---7--|6-------6---6---6---6---6------|
  D|9-------9-------9-------9---9--|7-------7---7---7---7---7------|
  A|9-------9-------9-------9---9--|7-------7---7---7---7---7------|
  E|7-------7-------7-------7---7--|5-------5---5---5---5---5------|



    Bb                                                      C
  e|1------ 1---1-- 1---1-- 1------|1-----1 1---1-- 1------ 0------|
  B|3-------3---3---3---3---3------|3-----3-3---3---3-------1------|
  G|3-------3---3---3---3---3------|3-----3-3---3---3-------0------|
  D|3-------3---3---3---3---3------|3-----3-3---3---3-------2------|
  A|1-------1---1---1---1---1------|1-----1-1---1---1-------3------|
  E|-------------------------------|-------------------------------|
    you                                             you     you
  e|6------ 6---6-- 6------ 6------|6------ 6---6-- 6------ 8------|
  B|6-------6---6---6-------6------|6-------6---6---6-------8------|
  G|7-------7---7---7-------7------|7-------7---7---7-------9------|
  D|8-------8---8---8-------8------|8-------8---8---8------10------|
  A|8-------8---8---8-------8------|8-------8---8---8------10------|
  E|6-------6---6---6-------6------|6-------6---6---6-------8------|



    D
  e|2-----2 2---2-- 2---2-- 2---2--|2-----2 2---2-- 2---2-- 2---2--|
  B|3-----3-3---3---3---3---3---3--|3-----3-3---3---3---3---3---3--|
  G|2-----2-2---2---2---2---2---2--|2-----2-2---2---2---2---2---2--|
  D|0-----0-0---0---0---0---0---0--|0-----0-0---0---0---0---0---0--|
  A|-------------------------------|-------------------------------|
  E|-------------------------------|-------------------------------|   
    you
  e|10----- 10--10- 10----- 10--10-|10----- 10--10- 10----- -------|
  B|10------10--10--10------10--10-|10------10--10--10------10-----|
  G|11------11--11--11------11--11-|11------11--11--11------11-----|
  D|12------12--12--12------12--12-|12------12--12--12------12-----|
  A|12------12--12--12------12--12-|12------12--12--12------12-----|
  E|10------10--10--10------10--10-|10------10--10--10------10-----|

    
    VERSE
    00:32

  e|2------ 2---2-- 2---2-- 2---0--|0---0-- 0---0-- 0---0-- 0---0--|
  B|3-------3---3---3---3---3---0--|0---0---0---0---0---0---0---0--|
  G|2-------2---2---2---2---2---0--|0---0---0---0---0---0---0---0--|
  D|0-------0---0---0---0---0------|2---2---2---2---2---2---2---2--|
  A|-------------------------------|2---2---2---2---2---2---2---2--|
  E|-------------------------------|0---0---0---0---0---0---0---0--|
    I'll    be      coming          home        again           to
  e|10----- 10--10- 10----- 10--7--|7------ 7---7-- 7------ 7------|
  B|10------10--10--10------10--8--|8-------8---8---8-------8------|
  G|11------11--11--11------11--9--|9-------9---9---9-------9------|
  D|12------12--12--12------12-----|9-------9---9---9-------9------|
  A|12------12--12--12------12-----|7-------7---7---7-------7------|
  E|10------10--10--10------10-----|-------------------------------|




  e|2------ 2---2-- 2---2-- 2---0--|0---0-- 0---0-- ----0-- 0------|
  B|3-------3---3---3---3---3---0--|2---2---2---2-------2---2---0--|
  G|2-------2---2---2---2---2---0--|2---2---2---2-------2---2---0--|
  D|0-------0---0---0---0---0------|2---2---2---2-------2---2---0--|
  A|-------------------------------|0---0---0---0-------0---0------|
  E|-------------------------------|-------------------------------|
    you,    love                and 'til        the day     I
  e|10----- ------- ------- -------|5------ 5------ ------- 5------|
  B|10------10------10------10-----|5-------5---------------5------|
  G|11------11------11------11-----|6-------6---------------6------|
  D|12------12------12------12-----|7-------7---------------7------|
  A|12------12------12------12-----|7-------7---------------7------|
  E|10------10------10------10-----|5-------5---------------5------|

 
                            
                               

  e|2------ 2---2-- 2---2-- 2------|0---0-- ----0-- ----0-- 0------|
  B|3-------3---3---3---3---3---0--|2---2-------2-------2---2---0--|
  G|4-------4---4---4---4---4---0--|2---2-------2-------2---2---0--|
  D|4-------4---4---4---4---4---0--|2---2-------2-------2---2---0--|
  A|2-------2---2---2---2---2------|0---0-------0-------0---0------|
  E|-------------------------------|-------------------------------|
    do,     love                    P.      S.          I       love
  e|7------ 7------ 7------ 7------|5------ 5------ 5---5-- 5------|
  B|7-------7-------7-------7------|5-------5-------5---5---5------|
  G|7-------7-------7-------7------|6-------6-------6---6---6------|
  D|9-------9-------9-------9------|7-------7-------7---7---7------|
  A|9-------9-------9-------9------|7-------7-------7---7---7------|
  E|7-------7-------7-------7------|5-------5-------5---5---5------|

        


  e|1------ 1---1-- 1---1-- 1------|1-----1 1---1-- 1------ 0------|
  B|3-------3---3---3---3---3------|3-----3-3---3---3-------1------|
  G|3-------3---3---3---3---3------|3-----3-3---3---3-------0------|
  D|3-------3---3---3---3---3------|3-----3-3---3---3-------2------|
  A|1-------1---1---1---1---1------|1-----1-1---1---1-------3------|
  E|-------------------------------|-------------------------------|
    you                                             you     you
  e|6------ 6------ 6------ 6---6--|6------ 6------ 6------ 8------|
  B|6-------6-------6-------6---6--|6-------6-------6-------8------|
  G|7-------7-------7-------7---7--|7-------7-------7-------9------|
  D|8-------8-------8-------8---8--|8-------8-------8------10------|
  A|8-------8-------8-------8---8--|8-------8-------8------10------|
  E|6-------6-------6-------6---6--|6-------6-------6-------8------|




  e|2---2-- ----2-- ----2-- ----2--|2-----2 2---2-- 2---2-- 2------|
  B|3---3-------3-------3-------3--|3-----3-3---3---3---3---3---0--|
  G|2---2-------2-------2-------2--|2-----2-2---2---2---2---2---0--|
  D|0---0-------0-------0-------0--|0-----0-0---0---0---0---0---0--|
  A|-------------------------------|-------------------------------|
  E|-------------------------------|-------------------------------|

  e|10--10- ---10-- ------- -------|------- ------- ------- -------|
  B|10--10-----10---10------10--10-|10------10------10------10-----|
  G|11--11-----11---11------11--11-|11------11------11------11-----|
  D|12--12-----12---12------12--12-|12------12------12------12-----|
  A|12--12-----12---12------12--12-|12------12------12------12-----|
  E|10--10-----10---10------10--10-|10------10------10------10-----|


    MIDDLE EIGHT
    00:50
    G                               D
  e|3------ 3---3-- 3---3-- 3------|2------ 2---2-- 2---2-- 2---0--|
  B|3-------3---3---3---3---3------|3-------3---3---3---3---3---0--|
  G|4-------4---4---4---4---4------|2-------2---2---2---2---2---0--|
  D|5-------5---5---5---5---5------|0-------0---0---0---0---0------|
  A|5-------5---5---5---5---5------|-------------------------------|
  E|3-------3---3---3---3---3------|-------------------------------|
    As      I       write           letter,
                                this
  e|10----- 10----- 10----- 10-----|10----- 10----- 10----- 10-----|
  B|12------12------12------12-----|10------10------10------10-----|
  G|12------12------12------12-----|11------11------11------11-----|
  D|12------12------12------12-----|12------12------12------12-----|
  A|10------10------10------10-----|12------12------12------12-----|
  E|-------------------------------|10------10------10------10-----|




    G                               D
  e|3------ 3---3-- 3---3-- 3------|2---2-- ----2-- ----2-- 2------|
  B|3-------3---3---3---3---3------|3---3-------3-------3---3------|
  G|4-------4---4---4---4---4------|2---2-------2-------2---2------|
  D|5-------5---5---5---5---5------|0---0-------0-------0---0------|
  A|5-------5---5---5---5---5------|-------------------------------|
  E|3-------3---3---3---3---3------|-------------------------------|
    Send    my      love        to  you                         Remember
  e|10----- 10----- 10----- 10-----|10----- 10----- 10--10- 10-----|
  B|12------12------12------12-----|10------10------10--10--10-----|
  G|12------12------12------12-----|11------11------11--11--11-----|
  D|12------12------12------12-----|12------12------12--12--12-----|
  A|10------10------10------10-----|12------12------12--12--12-----|
  E|-------------------------------|10------10------10--10--10-----|

 

    G                               D
  e|3------ 3---3-- 3---3-- 3------|2---2-- ----2-- ----2-- ----2--|
  B|3-------3---3---3---3---3------|3---3-------3-------3-------3--|
  G|4-------4---4---4---4---4------|2---2-------2-------2-------2--|
  D|5-------5---5---5---5---5------|0---0-------0-------0-------0--|
  A|5-------5---5---5---5---5------|-------------------------------|
  E|3-------3---3---3---3---3------|-------------------------------|
                    that            always
                                I'll
  e|10----- 10----- 10----- 10-----|10----- 10----- 10--10- 10-----|
  B|12------12------12------12-----|10------10------10--10--10-----|
  G|12------12------12------12-----|11------11------11--11--11-----|
  D|12------12------12------12-----|12------12------12--12--12-----|
  A|10------10------10------10-----|12------12------12--12--12-----|
  E|-------------------------------|10------10------10--10--10-----|



                    A               D
  e|2---2-- 2------ 0------ 0------|2-----2 2---2-- ----2-- ----2--|
  B|3---3---3-------2-------2------|3-----3-3---3-------3-------3--|
  G|2---2---2-------2-------2------|2-----2-2---2-------2-------2--|
  D|0---0---0-------2-------2------|0-----0-0---0-------0-------0--|
  A|----------------0-------0------|-------------------------------|
  E|-------------------------------|-------------------------------|    
    be      in      love    with    you
  e|10----- 10----- ------- -------|10----- 10----- 10----- 10--10-|
  B|10------10-----10------10------|10------10------10------10--10-|
  G|11------11------9-------9------|11------11------11------11--11-|
  D|12------12-----11------11------|12------12------12------12--12-|
  A|12------12-----12------12------|12------12------12------12--12-|
  E|10------10---------------------|10------10------10------10--10-|


    VERSE
    01:04

  e|2---2-- 2------ 2------ 2---2--|0------ 0---0-- 0------ 0---0--|
  B|3---3---3-------3-------3---3--|0-------0---0---0-------0---0--|
  G|2---2---2-------2-------2---2--|0-------0---0---0-------0---0--|
  D|0---0---0-------0-------0---0--|2-------2---2---2-------2---2--|
  A|-------------------------------|2-------2---2---2-------2---2--|
  E|-------------------------------|0-------0---0---0-------0---0--|
    Treasure        these   few     words       till    we're   together
  e|10----- 10----- 10----- 10-----|7------ 7------ 7------ 7---7--|
  B|10------10------10------10-----|8-------8-------8-------8---8--|
  G|11------11------11------11-----|9-------9-------9-------9---9--|
  D|12------12------12------12-----|9-------9-------9-------9---9--|
  A|12------12------12------12-----|7-------7-------7-------7---7--|
  E|10------10------10------10-----|-------------------------------|




  e|2------ 2---2-- 2---2-- 2---0--|0------ 0---0-- 0---0-- 0------|
  B|3-------3---3---3---3---3---0--|2-------2---2---2---2---2---0--|
  G|2-------2---2---2---2---2---0--|2-------2---2---2---2---2---0--|
  D|0-------0---0---0---0---0------|2-------2---2---2---2---2---0--|
  A|-------------------------------|0-------0---0---0---0---0------|
  E|-------------------------------|-------------------------------|
                                    all         my      love    forever
                                Keep
  e|10----- 10----- 10----- 10-----|5------ 5------ 5------ 5------|
  B|10------10------10------10-----|5-------5-------5-------5------|
  G|11------11------11------11-----|6-------6-------6-------6------|
  D|12------12------12------12-----|7-------7-------7-------7------|
  A|12------12------12------12-----|7-------7-------7-------7------|
  E|10------10------10------10-----|5-------5-------5-------5------|




  e|2---2-- 2---2-- 2---2-- 2------|0------ 0---0-- 0---0-- 0------|
  B|3---3---3---3---3---3---3---0--|2-------2---2---2---2---2---0--|
  G|4---4---4---4---4---4---4---0--|2-------2---2---2---2---2---0--|
  D|4---4---4---4---4---4---4---0--|2-------2---2---2---2---2---0--|
  A|2---2---2---2---2---2---2------|0-------0---0---0---0---0------|
  E|-------------------------------|-------------------------------|
                                    P.      S.          I       love
  e|7------ 7------ 7------ 7---7--|5------ 5------ 5---5-- 5------|
  B|7-------7-------7-------7---7--|5-------5-------5---5---5------|
  G|7-------7-------7-------7---7--|6-------6-------6---6---6------|
  D|9-------9-------9-------9---9--|7-------7-------7---7---7------|
  A|9-------9-------9-------9---9--|7-------7-------7---7---7------|
  E|7-------7-------7-------7---7--|5-------5-------5---5---5------|




  e|1------ 1---1-- 1---1-- 1---1--|1-----1 1---1-- 1------ 0------|
  B|3-------3---3---3---3---3---3--|3-----3-3---3---3-------1------|
  G|3-------3---3---3---3---3---3--|3-----3-3---3---3-------0------|
  D|3-------3---3---3---3---3---3--|3-----3-3---3---3-------2------|
  A|1-------1---1---1---1---1---1--|1-----1-1---1---1-------3------|
  E|-------------------------------|-------------------------------|
    you                                             you     you
  e|6------ 6------ 6------ 6------|6------ 6---6-- 6------ 8------|
  B|6-------6-------6-------6------|6-------6---6---6-------8------|
  G|7-------7-------7-------7------|7-------7---7---7-------9------|
  D|8-------8-------8-------8------|8-------8---8---8------10------|
  A|8-------8-------8-------8------|8-------8---8---8------10------|
  E|6-------6-------6-------6------|6-------6---6---6-------8------|




  e|2---2-- ----2-- ----2-- 2------|2-----2 2---2-- ----2-- 2---0--|
  B|3---3-------3-------3---3------|3-----3-3---3-------3---3---0--|
  G|2---2-------2-------2---2------|2-----2-2---2-------2---2---0--|
  D|0---0-------0-------0---0------|0-----0-0---0-------0---0------|
  A|-------------------------------|-------------------------------|
  E|-------------------------------|-------------------------------|   
    you
  e|------- ------- ------- -------|------- ------- ------- -------|
  B|10------10------10--10--10-----|10------10------10--10--10-----|
  G|11------11------11--11--11-----|11------11------11--11--11-----|
  D|12------12------12--12--12-----|12------12------12--12--12-----|
  A|12------12------12--12--12-----|12------12------12--12--12-----|
  E|10------10------10--10--10-----|10------10------10--10--10-----|


    MIDDLE EIGHT
    01:22

  e|3---3-- 3---3-- ----3-- 3------|2---2-- 2------ 2---2-- 2---0--|
  B|3---3---3---3-------3---3------|3---3---3-------3---3---3---0--|
  G|4---4---4---4-------4---4------|2---2---2-------2---2---2---0--|
  D|5---5---5---5-------5---5------|0---0---0-------0---0---0------|
  A|5---5---5---5-------5---5------|-------------------------------|
  E|3---3---3---3-------3---3------|-------------------------------|
    As      I       write           letter,
                                this      (Oh)
  e|10----- 10----- 10----- 10-----|10----- 10----- 10----- 10-----|
  B|12------12------12------12-----|10------10------10------10-----|
  G|12------12------12------12-----|11------11------11------11-----|
  D|12------12------12------12-----|12------12------12------12-----|
  A|10------10------10------10-----|12------12------12------12-----|
  E|-------------------------------|10------10------10------10-----|


  

  e|3------ 3---3-- 3---3-- 3------|2---2-- 2---2-- 2---2-- 2---2--|
  B|3-------3---3---3---3---3------|3---3---3---3---3---3---3---3--|
  G|4-------4---4---4---4---4------|2---2---2---2---2---2---2---2--|
  D|5-------5---5---5---5---5------|0---0---0---0---0---0---0---0--|
  A|5-------5---5---5---5---5------|-------------------------------|
  E|3-------3---3---3---3---3------|-------------------------------|
    Send    my      love        to  you                         Remember 
                                       (You know I  want you to)
  e|10----- 10----- 10--10- 10-----|10----- 10----- 10--10- 10-----|
  B|12------12------12--12--12-----|10------10------10--10--10-----|
  G|12------12------12--12--12-----|11------11------11--11--11-----|
  D|12------12------12--12--12-----|12------12------12--12--12-----|
  A|10------10------10--10--10-----|12------12------12--12--12-----|
  E|-------------------------------|10------10------10--10--10-----|




  e|3------ 3------ 3------ 3------|2---2-- 2---2-- ----2-- ----2--|
  B|3-------3-------3-------3------|3---3---3---3-------3---3---3--|
  G|4-------4-------4-------4------|2---2---2---2-------2---2---2--|
  D|5-------5-------5-------5------|0---0---0---0-------0---0---0--|
  A|5-------5-------5-------5------|-------------------------------|
  E|3-------3-------3-------3------|-------------------------------|
                    that            always
                                I'll
  e|10----- 10----- 10----- 10-----|10----- 10----- 10--10- 10-----|
  B|12------12------12------12-----|10------10------10--10--10-----|
  G|12------12------12------12-----|11------11------11--11--11-----|
  D|12------12------12------12-----|12------12------12--12--12-----|
  A|10------10------10------10-----|12------12------12--12--12-----|
  E|-------------------------------|10------10------10--10--10-----|




  e|2------ 2------ 0------ 0------|2-----2 2---2-- ----2-- 2---2--|
  B|3-------3-------2-------2------|3-----3-3---3-------3---3---3--|
  G|2-------2-------2-------2------|2-----2-2---2-------2---2---2--|
  D|0-------0-------2-------2------|0-----0-0---0-------0---0---0--|
  A|----------------0-------0------|-------------------------------|
  E|-------------------------------|-------------------------------|     
    be      in      love    with    you
  e|10----- 10----- ------- -------|10----- 10----- 10--10- 10--10-|
  B|10------10-----10------10------|10------10------10--10--10--10-|
  G|11------11------9-------9------|11------11------11--11--11--11-|
  D|12------12-----11------11------|12------12------12--12--12--12-|
  A|12------12-----12------12------|12------12------12--12--12--12-|
  E|10------10---------------------|10------10------10--10--10--10-|

    
    CODA
    01:36
    D                               Em
  e|2---2-- 2---2-- 2---2-- 2---0--|0---0-- 0---0-- 0------ 0------|
  B|3---3---3---3---3---3---3---0--|0---0---0---0---0-------0------|
  G|2---2---2---2---2---2---2---0--|0---0---0---0---0-------0------|
  D|0---0---0---0---0---0---0------|2---2---2---2---2-------2------|
  A|-------------------------------|2---2---2---2---2-------2------|
  E|-------------------------------|0---0---0---0---0-------0------|
    I'll    be      coming          home        again           to 
  e|10----- 10----- 10----- 10-----|7------ 7------ 7------ 7------|
  B|10------10------10------10-----|8-------8-------8-------8------|
  G|11------11------11------11-----|9-------9-------9-------9------|
  D|12------12------12------12-----|9-------9-------9-------9------|
  A|12------12------12------12-----|7-------7-------7-------7------|
  E|10------10------10------10-----|-------------------------------|



    D                               A
  e|2-----2 ----2-- ----2-- -------|0------ 0---0-- ----0-- 0------|
  B|3-----3-----3-------3----------|2-------2---2-------2---2------|
  G|2-----2-----2-------2----------|2-------2---2-------2---2------|
  D|0-----0-----0-------0----------|2-------2---2-------2---2------|
  A|-------------------------------|0-------0---0-------0---0------|
  E|-------------------------------|-------------------------------|
    you,    love                and 'til        the day     I
  e|------- ------- ------- -------|5------ 5------ 5------ 5------|
  B|10------10------10-------------|5-------5-------5-------5------|
  G|11------11--11--11--11---------|6-------6-------6-------6------|
  D|12------12------12-------------|7-------7-------7-------7------|
  A|12------12------12-------------|7-------7-------7-------7------|
  E|10------10------10-------------|5-------5-------5-------5------|
 
                            
                               
    Bm                              A
  e|2---2-- ----2-- ----2-- -------|0------ 0---0-- 0---0-- 0------|
  B|3---3-------3-------3-------0--|2-------2---2---2---2---2---0--|
  G|4---4-------4-------4-------0--|2-------2---2---2---2---2---0--|
  D|4---4-------4-------4-------0--|2-------2---2---2---2---2---0--|
  A|2---2-------2-------2----------|0-------0---0---0---0---0------|
  E|-------------------------------|-------------------------------|
    do,     love                    P.      S.          I       love
  e|7------ 7------ 7------ 7------|5------ 5------ 5---5-- 5------|
  B|7-------7---7---7---7---7---7--|5-------5-------5---5---5------|
  G|7-------7-------7-------7------|6-------6-------6---6---6------|
  D|9-------9-------9-------9------|7-------7-------7---7---7------|
  A|9-------9-------9-------9------|7-------7-------7---7---7------|
  E|7-------7-------7-------7------|5-------5-------5---5---5------|

        

    Bb                                                      C
  e|1---1-- 1---1-- ----1-- 1------|1-----1 1---1-- 1------ 0------|
  B|3---3---3---3-------3---3------|3-----3-3---3---3-------1------|
  G|3---3---3---3-------3---3------|3-----3-3---3---3-------0------|
  D|3---3---3---3-------3---3------|3-----3-3---3---3-------2------|
  A|1---1---1---1-------1---1------|1-----1-1---1---1-------3------|
  E|-------------------------------|-------------------------------|
    you                                             you     you
  e|6------ 6------ 6------ 6------|6------ 6---6-- 6------ 8------|
  B|6-------6-------6-------6------|6-------6---6---6-------8------|
  G|7-------7-------7-------7------|7-------7---7---7-------9------|
  D|8-------8-------8-------8------|8-------8---8---8------10------|
  A|8-------8-------8-------8------|8-------8---8---8------10------|
  E|6-------6-------6-------6------|6-------6---6---6-------8------|



    D                                               Bb      C
  e|2-----2 ----2-- ----2-- 2---2--|2-----2 2------ 1------ 0------|
  B|3-----3-----3-------3---3---3--|3-----3-3---0---3-------1------|
  G|2-----2-----2-------2---2---2--|2-----2-2---0---3-------0------|
  D|0-----0-----0-------0---0---0--|0-----0-0---0---3-------2------|
  A|-------------------------------|----------------1-------3------|
  E|-------------------------------|-------------------------------|
    you                                             you     you
  e|10----- 10----- 10----- 10--10-|10----- 10----- 6------ 8------|
  B|10------10------10------10--10-|10------10------6-------8------|
  G|11------11------11------11--11-|11------11------7-------9------|
  D|12------12------12------12--12-|12------12------8------10------|
  A|12------12------12------12--12-|12------12------8------10------|
  E|10------10------10------10--10-|10------10------6-------8------|



    D                                               Bb      C
  e|2-----2 ----2-- ----2-- 2---2--|2-----2 2------ 1------ 0------|
  B|3-----3-----3-------3---3---3--|3-----3-3-------3-------1------|
  G|2-----2-----2-------2---2---2--|2-----2-2-------3-------0------|
  D|0-----0-----0-------0---0---0--|0-----0-0-------3-------2------|
  A|-------------------------------|----------------1-------3------|
  E|-------------------------------|-------------------------------|
                                                    I       love
  e|10----- 10----- 10--10- 10-----|10----- 10----- 6------ 8------|
  B|10------10------10--10--10-----|10------10------6-------8------|
  G|11------11------11--11--11-----|11------11------7-------9------|
  D|12------12------12--12--12-----|12------12------8------10------|
  A|12------12------12--12--12-----|12------12------8------10------|
  E|10------10------10--10--10-----|10------10------6-------8------|



    D
  e|2------ ----2-- ----2-- 2---2--|2------ ------- ------- -------|
  B|3-----------3-------3---3---3--|3------------------------------|
  G|2-----------2-------2---2---2--|2------------------------------|
  D|0-----------0-------0---0---0--|0------------------------------|
  A|-------------------------------|-------------------------------|
  E|-------------------------------|-------------------------------|
    you
  e|10----- ----10- ----10- 10-----|10----- ------- ------- -------|
  B|10----------10------10--10-----|10-----------------------------|
  G|11----------11------11--11-----|11-----------------------------|
  D|12----------12------12--12-----|12-----------------------------|
  A|12----------12------12--12-----|12-----------------------------|
  E|10----------10------10--10-----|10-----------------------------|






   Since the song is in the key of D Major we may take a look at the 
   following D diatonic scale and a couple of inversions:


                     D DIATONIC TRIAD SCALE


                         Scale degrees     (Capital letters - Major
                                            Small letters   - Minor)

    I      iim     iiim    IV       V      vim     VII      VIII (I)

  e|------- ------- ------- ------- ------- ------- ------- -------|
  B|--------0-------2-------3-------5-------7-------8-------10-----|
  G|2-------0-------2-------4-------6-------7-------9-------11-----|
  D|4-------2-------4-------5-------7-------9------11-------12-----|
  A|5--------------------------------------------------------------|
  E|---------------------------------------------------------------|
    D       Em      Fm      G       A       Bm     Cdim      D


                       (First Inversion)

    I      IIm     IIIm    IV       V      vim     VII      I

  e|------- ------- ------- ------- 5------ 7------ 9------ 10-----|
  B|3-------5-------7-------8-------5-------7-------8-------10-----|
  G|2-------4-------6-------7-------6-------7-------9-------11-----|
  D|4-------5-------7-------9--------------------------------------|
  A|---------------------------------------------------------------|
  E|---------------------------------------------------------------|
    
                     
                        (Second Inversion)

    I      iim     iiim    IV       V      vim      VII     I

  e|2------ 3------ 5------ 7------ 9------ 10----- 12----- 14-----|
  B|3-------5-------7-------8------10-------12------14------15-----|
  G|2-------4-------6-------7-------9-------11------12------14-----|
  D|---------------------------------------------------------------|
  A|---------------------------------------------------------------|
  E|---------------------------------------------------------------|
    





   bVI        bVII        I            bVI       bVII       I

  e|1----------0----------2-------------10--------12--------14-----|
  B|3----------1----------3-------------11--------13--------15-----|
  G|3----------0----------2-------------10--------12--------14-----|
  D|3----------2----------0----------------------------------------|
  A|1----------3---------------------------------------------------|
  E|---------------------------------------------------------------|
    Bb         C          D             Bb         C         D

   (you       you       you)


     
   


        B  Bend
        R  Release
        /  Slide up
        \  Slide down
        H  Hammer-on
        P  Pull-off
        ~  Vibrato
        +  Harmonic
        x  Mute note
        .  Play note like a dot in standard notation
        ^  Ties two notes together
        (. Pause


Tap to rate this tab
 
# A B C D E F G H I J K L M N O P Q R S T U V W X Y Z