Song name
# A B C D E F G H I J K L M N O P Q R S T U V W X Y Z

Beatles - Wild Honey Pie tab

    ----------------------------------------------------------

    THE BEATLES - WILD HONEY PIE (Lennon & McCartney) From the 
                  WHITE ALBUM. Released on 22nd November 1968. 
   
    ----------------------------------------------------------

    Tabbed by:PJVillanueva





    Honey pie  honey pie 
    Honey pie  honey pie 
    Honey pie  honey pie 
    Honey pie  honey pie 

    I love you  honey pie 

 


    4/4

   
  e|6------ ------- 6------ -------|4------ ------- 4------ -------|
  B|--------5---------------5------|--------3---------------3------|
  G|----6-------6-------6-------6--|----4-------4-------4-------4--|
  D|-------------------------------|-------------------------------|
  A|-------------------------------|-------------------------------|
  E|-------------------------------|-------------------------------|
                         
  e|12----- ------- 12----- -------|10----- ------- 10----- -------|
  B|--------11--------------11-----|--------9---------------9------|
  G|----11------11------11------11-|----9-------9-------9-------9--|
  D|-------------------------------|-------------------------------|
  A|-------------------------------|-------------------------------|
  E|-------------------------------|-------------------------------|

  e|------- ------- ------- -------|------- ------- ------- -------|
  B|-------------------------------|-------------------------------|
  G|----11-~----11-~----11-~----11-~----9-~-----9-~-----9-~-----9-~|
  D|-------------------------------|-------------------------------|
  A|-------------------------------|-------------------------------|
  E|-------------------------------|-------------------------------|



                                    
                                    2/4

  e|3---3-- 3---3-- 2---2-- 2---2--|1---1-- 1---1--|
  B|2---2---2---2---1---1---1---1--|0---0---0---0--|
  G|3---3---3---3---2---2---2---2--|1---1---1---1--|
  D|-------------------------------|---------------|
  A|-------------------------------|---------------|
  E|-------------------------------|---------------|

  e|9---9-- 9---9-- 8---8-- 8---8--|7---7-- 7---7--|
  B|8---8---8---8---7---7---7---7--|6---6---6---6--|
  G|8---8---8---8---7---7---7---7--|6---6---6---6--|
  D|-------------------------------|---------------|
  A|-------------------------------|---------------|
  E|-------------------------------|---------------|

  e|------- ------- ------- -------|------- -------|
  B|-------------------------------|---------------|
  G|8---8---8---8---7---7---7---7--|6---6---6---6--|
  D|-------------------------------|---------------|
  A|-------------------------------|---------------|
  E|-------------------------------|---------------|




    
    4/4

  e|6---6-- 6---6-- 6------ -------|6---6-- 6---6-- 6------ -------|
  B|5---5---5---5---5---5----------|5---5---5---5---5---5----------|
  G|6---6---6---6---6--------------|6---6---6---6---6--------------|
  D|-------------------------------|-------------------------------|
  A|-------------------------------|-------------------------------|
  E|-------------------------------|-------------------------------|

  e|12--12- 12--12- 12--12- 12-----|12--12- 12----- 12----- -------|
  B|11--11--11--11--11--11--11-----|11--11--11------11-------------|
  G|11--11--11--11--11--11--11-----|11--11--11------11-------------|
  D|-------------------------------|-------------------------------|
  A|-------------------------------|-------------------------------|
  E|-------------------------------|-------------------------------|

  e|------- ------- ------- -------|------- ------- ------- -------|
  B|--------11---------------------|-------------------------------|
  G|----11------11------9---11-----|9---9---9---9---9--------------|
  D|-------------------------------|-------------------------------|
  A|-------------------------------|-------------------------------|
  E|-------------------------------|-------------------------------|
    Honey                           honey
        pie                             pie



    00:15

  e|6------ ------- 6------ -------|4------ ------- 4------ -------|
  B|--------5---------------5------|--------3---------------3------|
  G|----6-------6-------6-------6--|----4-------4-------4-------4--|
  D|-------------------------------|-------------------------------|
  A|-------------------------------|-------------------------------|
  E|-------------------------------|-------------------------------|

  e|12----- ------- 12----- -------|10----- ------- 10----- -------|
  B|11------11------11------11-----|-9------9--------9------9------|
  G|--------11--------------11-----|--------9---------------9------|
  D|-------------------------------|-------------------------------|
  A|-------------------------------|-------------------------------|
  E|-------------------------------|-------------------------------|

  e|------- ------- ------- -------|------- ------- ------- -------|
  B|-------------------------------|-------------------------------|
  G|-------------------------------|-------------------------------|
  D|-------------------------------|-------------------------------|
  A|-------------------------------|-------------------------------|
  E|-------------------------------|-------------------------------|





  e|3---3-- 3---3-- 2---2-- 2---2--|1---1-- 1---1--|
  B|2---2---2---2---1---1---1---1--|0---0---0---0--|
  G|3---3---3---3---2---2---2---2--|1---1---1---1--|
  D|-------------------------------|---------------|
  A|-------------------------------|---------------|
  E|-------------------------------|---------------|

  e|9---9-- 9---9-- 8---8-- 8---8--|7---7-- 7---7--|
  B|8---8---8---8---7---7---7---7--|6---6---6---6--|
  G|8---8---8---8---7---7---7---7--|6---6---6---6--|
  D|-------------------------------|---------------|
  A|-------------------------------|---------------|
  E|-------------------------------|---------------|

  e|------- ------- ------- -------|------- -------|
  B|-------------------------------|---------------|
  G|8---8---8---8---7---7---7---7--|6---6---6---6--|
  D|-------------------------------|---------------|
  A|-------------------------------|---------------|
  E|-------------------------------|---------------|




   

  e|6------ ------- 6------ -------|6------ ------- 6------ -------|
  B|5---------------5--------------|5---------------5--------------|
  G|6---------------6--------------|6---------------6--------------|
  D|-------------------------------|-------------------------------|
  A|-------------------------------|-------------------------------|
  E|-------------------------------|-------------------------------|

  e|12----- ------- 12----- -------|12----- ------- 12----- -------|
  B|11------11------11------11-----|11------11------11------11-----|
  G|--------11--------------11-----|--------11--------------11-----|
  D|-------------------------------|-------------------------------|
  A|-------------------------------|-------------------------------|
  E|-------------------------------|-------------------------------|

  e|------- ------- ------- -------|------- ------- ------- -------|   
  B|--------11-~------------11-~---|--------11-~------------11-~---|
  G|----11-~----11-~----11-~----11-|----11-~----11-~----11-~----11-|
  D|-------------------------------|-------------------------------|
  A|-------------------------------|-------------------------------|
  E|-------------------------------|-------------------------------|
    Honey                           honey
        pie                             pie



    00:29

  e|6------ ------- 6------ -------|4------ ------- 4------ -------|
  B|--------5---------------5------|--------3---------------3------|
  G|----6-------6-------6-------6--|----4-------4-------4-------4--|
  D|-------------------------------|-------------------------------|
  A|-------------------------------|-------------------------------|
  E|-------------------------------|-------------------------------|
                         
  e|12--12- 12----- 12---12 -------|----10- ------- 10----- ----10-|
  B|-------------------------------|9-----------9---------9--------|
  G|-------------------------------|-------------------------------|
  D|-------------------------------|-------------------------------|
  A|-------------------------------|-------------------------------|
  E|-------------------------------|-------------------------------|

  e|------- ------- ------- -------|------- ------- ------- -------|
  B|-------------------------------|----------9-~---------9-~------|
  G|----11-~----11-~----11-~----/15|9-~-----9-~---------9-~-----9-~|
  D|-------------------------------|-------------------------------|
  A|-------------------------------|-------------------------------|
  E|-------------------------------|-------------------------------|





  e|3---3-- 3---3-- 2---2-- 2---2--|1---1-- 1---1--|
  B|2---2---2---2---1---1---1---1--|0---0---0---0--|
  G|3---3---3---3---2---2---2---2--|1---1---1---1--|
  D|-------------------------------|---------------|
  A|-------------------------------|---------------|
  E|-------------------------------|---------------|

  e|9---9-- 9------ 8---8-- 8------|7---7-- 7------|
  B|8---8---8-------7---7---7------|6---6---6------|
  G|8---8---8-------7---7---7------|6---6---6------|
  D|------------8---------------7--|------------6--|
  A|-------------------------------|---------------|
  E|-------------------------------|---------------|

  e|------- ------- ------- -------|------- -------|
  B|-------------------------------|---------------|
  G|8---8---8-~-----7---7---7-~----|6---6---6-~----|
  D|-------------------------------|---------------|
  A|-------------------------------|---------------|
  E|-------------------------------|---------------|




    00:39

  e|6---6-- 6---6-- 6---6-- 6---6--|4---4-- 4-4-4-- 4---4-- 4---4--|
  B|5---5---5---5---5---5---5---5--|3---3---3-3-3---3---3---3---3--|
  G|6---6---6---6---6---6---6---6--|4---4---4-4-4---4---4---4---4--|
  D|-------------------------------|-------------------------------|
  A|-------------------------------|-------------------------------|
  E|-------------------------------|-------------------------------|

  e|12--12- 12--12- 12----- 12--12-|10--10- 10--10- 10----- 10--19-|
  B|11--11--11--11--11------11--11-|-9---9---9---9---9-------9---9-|
  G|11--11--11--11--11--11--11--11-|-9---9---9---9---9---9---9---9-|
  D|-------------------------------|-------------------------------|
  A|-------------------------------|-------------------------------|
  E|-------------------------------|-------------------------------|
    Honey                           honey
        pie                             pie



  e|6---6-- 6---6-- 6------ 6---6--|4---4-- 4------ ------- -------|
  B|5---5---5---5---5---5---5---5--|3---3---3---3---3---3---3---3--|
  G|6---6---6---6---6---6---6---6--|4---4---4---4---4---4---4---4--|
  D|-------------------------------|-------------------------------|
  A|-------------------------------|-------------------------------|
  E|-------------------------------|-------------------------------|

  e|12--12- 12----- 12--12- 12--12-|10--10- 10----- 10----- 10-----|
  B|11--11--11------11--11--11--11-|-9---9---9-------9-------9-----|
  G|11--11--11--11--11--11--11--11-|-9---9---9---9---9---9---9-----|
  D|-------------------------------|-------------------------------|
  A|-------------------------------|-------------------------------|
  E|-------------------------------|-------------------------------|
    Honey                           honey                       I
        pie                             pie




  e|6------ ------- ------- -------|------- ------- ------- -------|
  B|7------------------------------|-------------------------------|
  G|6------------------------------|-------------------------------|
  D|-------------------------------|-------------------------------|
  A|-------------------------------|-------------------------------|
  E|-------------------------------|-------------------------------|

  e|------- ------- ------- -------|------- ------- ------- -------|
  B|11-----------------------------|-------------------------------|
  G|11-----------------------------|-------------------------------|
  D|-------------------------------|-------------------------------|
  A|-------------------------------|-------------------------------|
  E|-------------------------------|-------------------------------|
    love                honey
        you                 pie
    Wooooooooooooooooooooohhhh  Wooooohh!
  







        B  Bend
        R  Release
        /  Slide up
        \  Slide down
        H  Hammer-on
        P  Pull-off
        ~  Vibrato
        +  Harmonic
        x  Mute note
        .  Play note like a dot in standard notation
        ^  Ties two notes together
        (. Pause




Tap to rate this tab
 
# A B C D E F G H I J K L M N O P Q R S T U V W X Y Z