Song name
# A B C D E F G H I J K L M N O P Q R S T U V W X Y Z

Beatles - Yellow Submarine tab

The lyrics and tabs for the Beatles song "Yellow Submarine".

--------------------------------------------------------------------|
-0-1-3---0-0----0-0----------0-0------------------------------------|
----------2-0-------2-0----------2----------------------------------|
-----------------------2---2----------------------------------------|
--------------------------------------------------------------------|
--------------------------------------------------------------------|

--------------------------------------------------------------------|
-0-1-3---0-0----0-0----------0-0------------------------------------|
----------2-0-------2-0----------2----------------------------------|
-----------------------2---2----------------------------------------|
--------------------------------------------------------------------|
--------------------------------------------------------------------|

--------------------------------------------------------------------|
-0-1-3---0-0----0-0----------0-0------------------------------------|
----------2-0-------2-0----------2----------------------------------|
-----------------------2---2----------------------------------------|
--------------------------------------------------------------------|
--------------------------------------------------------------------|

--------------------------------------------------------------------|
-0-1-3---0-0----0-0----------0-0------------------------------------|
----------2-0-------2-0----------2----------------------------------|
-----------------------2---2----------------------------------------|
--------------------------------------------------------------------|
--------------------------------------------------------------------|

--------0------------------------------------------------------------|
-3-3-3-3---------------------------0-0-0-0-0-------------------------|
------------2-2-2-2-2---2-2-2-2-2------------------------------------|
---------------------------------------------------------------------|
---------------------------------------------------------------------|
---------------------------------------------------------------------|

--------0------------------------------------------------------------|
-3-3-3-3---------------------------0-0-0-0-0-------------------------|
------------2-2-2-2-2---2-2-2-2-2------------------------------------|
---------------------------------------------------------------------|
---------------------------------------------------------------------|
---------------------------------------------------------------------|

--------------------------------------------------------------------|
-0-1-3---0-0----0-0----------0-0------------------------------------|
----------2-0-------2-0----------2----------------------------------|
-----------------------2---2----------------------------------------|
--------------------------------------------------------------------|
--------------------------------------------------------------------|

--------------------------------------------------------------------|
-0-1-3---0-0--------------------------------------------------------|
----------2-0-------------------------------------------------------|
--------------------------------------------------------------------|
--------------------------------------------------------------------|
--------------------------------------------------------------------|

--------0------------------------------------------------------------|
-3-3-3-3---------------------------0-0-0-0-0-------------------------|
------------2-2-2-2-2---2-2-2-2-2------------------------------------|
---------------------------------------------------------------------|
---------------------------------------------------------------------|
---------------------------------------------------------------------|

--------0------------------------------------------------------------|
-3-3-3-3---------------------------0-0-0-0-0-------------------------|
------------2-2-2-2-2---2-2-2-2-2------------------------------------|
---------------------------------------------------------------------|
---------------------------------------------------------------------|
---------------------------------------------------------------------|

--------------------------------------------------------------------|
-0-1-3---0-0----0-0----------0-0------------------------------------|
----------2-0-------2-0----------2----------------------------------|
-----------------------2---2----------------------------------------|
--------------------------------------------------------------------|
--------------------------------------------------------------------|

--------------------------------------------------------------------|
-0-1-3---0-0----0-0----------0-0------------------------------------|
----------2-0-------2-0----------2----------------------------------|
-----------------------2---2----------------------------------------|
--------------------------------------------------------------------|
--------------------------------------------------------------------|

--------0------------------------------------------------------------|
-3-3-3-3---------------------------0-0-0-0-0-------------------------|
------------2-2-2-2-2---2-2-2-2-2------------------------------------|
---------------------------------------------------------------------|
---------------------------------------------------------------------|
---------------------------------------------------------------------|

--------0------------------------------------------------------------|
-3-3-3-3---------------------------0-0-0-0-0-------------------------|
------------2-2-2-2-2---2-2-2-2-2------------------------------------|
---------------------------------------------------------------------|
---------------------------------------------------------------------|
---------------------------------------------------------------------|

--------0------------------------------------------------------------|
-3-3-3-3---------------------------0-0-0-0-0-------------------------|
------------2-2-2-2-2---2-2-2-2-2------------------------------------|
---------------------------------------------------------------------|
---------------------------------------------------------------------|
---------------------------------------------------------------------|

--------0------------------------------------------------------------|
-3-3-3-3---------------------------0-0-0-0-0-------------------------|
------------2-2-2-2-2---2-2-2-2-2------------------------------------|
---------------------------------------------------------------------|
---------------------------------------------------------------------|
---------------------------------------------------------------------|

Lyrics:
   G      D          C     G
1. In the town where I was born
   Em      Am         C       D
   lived a man who sailed the sea
   G      D       C      G
   and he told us of his life
   Em      Am     C        D
   in the land of submarines

2. So we sailed on to the sun
   till we found the sea of green
   and we live beneath the waves
   in our yellow submarine

     G   /    /    /  D    /     /    /
Ref. We all live in a yellow submarine
     /   /   /   /  /
     yellow submarines
     G    /    /    /
     yellow submarines

Ref. We all live in a yellow submarine
     yellow submarines
     yellow submarines

3. And our friends are all aboard
   many more of them live next door
   and the band begins to play...

Ref. We all live in a yellow submarine
     yellow submarines
     yellow submarines

Ref. We all live in a yellow submarine
     yellow submarines
     yellow submarines

4. As we live a life of ease,
   everyone of us has all we need,
   sky of blue and sea of green,
   in our yellow submarine

Ref. We all live in a yellow submarine
     yellow submarines
     yellow submarines

Ref. We all live in a yellow submarine
     yellow submarines
     yellow submarines

Ref. We all live in a yellow submarine
     yellow submarines
     yellow submarines

Ref. [Fading out while being played]We all live in a yellow submarine
     yellow submarines
     yellow submarines
Tap to rate this tab
 
# A B C D E F G H I J K L M N O P Q R S T U V W X Y Z