Song name
# A B C D E F G H I J K L M N O P Q R S T U V W X Y Z

Beatles - The Honeymoon Song tab

Help us improve GuitareTab! Take a short survey!
THE HONEYMOON SONG

Written by Mikis Theodorakis & William Sansom

INTRO

   E                                 A
E|-4----5----7-----9----9----9-----|-9----9----9-----9----7----------|
B|-5----7----9-----10---10---10----|-10---10---10----10---9----10----|
G|---------------------------------|---------------------------11----|
D|---------------------------------|---------------------------------|
A|---------------------------------|---------------------------------|
E|---------------------------------|---------------------------------|

   E
E|---------------------------------|---------------------------------|
B|-9-------------------------------|---------------------------------|
G|-9-----------9-------------------|---------------------------------|
D|-------------9-------------------|---------------------------------|
A|---------------------------------|-----------------2---0-----------|
E|---------------------------------|-------------------------4---2---|


E|---------------------------------|
B|---------------------------------|
G|---------------------------------|
D|---------------------------------|
A|---------------------------------|
E|-0-------------------------------|

E                    A                    E
I never knew that a day like today lay before us
                        A                           B
I've got the sun in my heart and my heart's in the sun
     E                         A                     E
The skys are as bright as your eyes the horizon is open
A              B       A           G#m    A      E
  Love is the ceiling feeling are reeling   free as the air


C#m                G#m
   Forever on and forever
C#m                E
   Forever on side by side
E                     A                   E
Whoever knew that we too could be free as we fancied
A           B           A      G#m          A          E
  Fancy is free but are we who are bound to each other by love

To each other by love

GUITAR SOLO

   E                                 A
E|-4----5----7-----9----9----9-----|-9----9----9-----9----7----------|
B|-5----7----9-----10---10---10----|-10---10---10----10---9----10----|
G|---------------------------------|---------------------------11----|
D|---------------------------------|---------------------------------|
A|---------------------------------|---------------------------------|
E|---------------------------------|---------------------------------|

   E
E|---------------------------------|---------------------------------|
B|-9-------------------------------|---------------------------------|
G|-9-----------9-------------------|---------------------------------|
D|-------------9-------------------|---------------------------------|
A|---------------------------------|---------------------------------|
E|---------------------------------|---------------------------------|

                                     A
E|-4----5----7-----9----9----9-----|-9----9----9-----9----7----9-----|
B|-5----7----9-----10---10---10----|-10---10---10----10---9----10----|
G|---------------------------------|---------------------------------|
D|---------------------------------|---------------------------------|
A|---------------------------------|---------------------------------|
E|---------------------------------|---------------------------------|

   B
E|-11------------------------------|-----------------7----5----4-----|
B|-12----------12------------------|---------------------------------|
G|-------------13------------------|---------------------------------|
D|---------------------------------|---------------------------------|
A|---------------------------------|---------------------------------|
E|---------------------------------|---------------------------------|

   E
E|-2-------------------------------|
B|---------------------------------|
G|---------------------------------|
D|---------------------------------|
A|---------------------------------|
E|---------------------------------|
   Whoever 
                        A                E
          knew that we too could be free as we fancied
A           B           A      G#m          A          E
  Fancy is free but are we who are bound to each other by love

To each other by love

To each other by love

To each other by love


   E                                 A
E|-4----5----7-----9----9----9-----|-9----9----9-----11---11---11----|
B|-5----7----9-----10---10---10----|-10---10---10----12---12---12----|
G|---------------------------------|---------------------------------|
D|---------------------------------|---------------------------------|
A|---------------------------------|---------------------------------|
E|---------------------------------|---------------------------------|

   E
E|-12------------------------------|---------4---4---4---------------|
B|-12------------------------------|---------5---5---5---------------|
G|---------------------------------|---------4---4---4---------------|
D|---------------------------------|---------------------------------|
A|---------------2-----0-----------|---------------------------------|
E|-------------------------4---2---|-0-------------------------------|
Related for The Honeymoon Song tab