Song name
# A B C D E F G H I J K L M N O P Q R S T U V W X Y Z

Beatles - Some Other Guy tab

The Beatles Some Other Guy Tabs
Lead and Rhythem


it is pretty hard in rhythem if you dont know you barre chords so know them well before 
try to learn this.
this song is a 1 4 5 blues in D. so all the verses will follow the progression D,G,A


the D Chord you need for rhythem is your first finger on 3rd fret of the 2nd sting.
your second finger on the 4th fret of the 4th string.
your third finger on the 5th fret if the 5th string and you little finger on the 5th 
of the 3rd string.
mute the low E with you thumb and use you first finger or you hand to mute the High E. 
should come out like this:
         x
         3
         5
         4
         5
         x

for the G you make A G7 barre chord and and the little finger on the
8th fret of the 2nd string
5
8
6
5
7
5


the A chord is the same as the G chord just 2 frets up   5
                                                         8
                                                         6
                                                         5
                                                         7
                                                         5


the first two notes on ryhthem and lead are the same.
 after that the rythem stars struming on the d chord and the lead plays the riffs


INTRO:


E|---------------------------------|---------------------------------|
B|---------------------------------|---------------------------------|
G|---------------------------------|---------------------------------|
D|-2-------------------------------|-2-------------------------------|
A|-0-------------------------------|-3-------------------------------|
E|---------------------------------|---------------------------------|

  D chord


E|---------------------------------|---------------------------------|
B|---------7-------5---7-------5---|-7-------7-------5---7-----------|
G|---------7-------5---7-------5---|-7-------7-------5---7-----------|
D|---------------------------------|---------------------------------|
A|-5-------------------------------|---------------------------------|
E|---------------------------------|---------------------------------|

   D chord


E|---------------------------------|---------------------------------|
B|---------7-------5---7-------5---|-7-------7-------5---7-----------|
G|---------7-------5---7-------5---|-7-------7-------5---7-----------|
D|---------------------------------|---------------------------------|
A|-5-------------------------------|---------------------------------|
E|---------------------------------|---------------------------------|


   G chord


E|------------------------------------|------------------------------|
B|--------12-------10---12-------10---|-12-------12-------10---12----|
G|--------12-------10---12-------10---|-12-------12-------10---12----|
D|------------------------------------|------------------------------|
A|-10----------------------------------------------------------------|
E|------------------------------------|------------------------------|

   D chord


E|---------------------------------|---------------------------------|
B|---------7-------5---7-------5---|-7-------7-------5---7-----------|
G|---------7-------5---7-------5---|-7-------7-------5---7-----------|
D|---------------------------------|---------------------------------|
A|-5-------------------------------|---------------------------------|
E|---------------------------------|---------------------------------|

   A chord


E|------------------------------------|------------------------------|
B|--------14-------12---14-------12---|-14-------14-------12---14----|
G|--------14-------12---14-------12---|-14-------14-------12---14----|
D|------------------------------------|------------------------------|
A|-12----------------------------------------------------------------|
E|------------------------------------|------------------------------|

   A chord


E|------------------------------------|------------------------------|
B|--------14-------12---14-------12---|-14-------14-------12---14----|
G|--------14-------12---14-------12---|-14-------14-------12---14----|
D|------------------------------------|------------------------------|
A|-12---------------------------------|------------------------------|
E|------------------------------------|------------------------------|


  D chord


E|---------------------------------|---------------------------------|
B|---------7-------5---7-------5---|-7-------7-------5---7-----------|
G|---------7-------5---7-------5---|-7-------7-------5---7-----------|
D|---------------------------------|---------------------------------|
A|-5-------------------------------|---------------------------------|
E|---------------------------------|---------------------------------|


  D chord


E|---------------------------------|---------------------------------|
B|---------7-------5---7-------5---|-7-------7-------5---7-----------|
G|---------7-------5---7-------5---|-7-------7-------5---7-----------|
D|---------------------------------|---------------------------------|
A|-5-------------------------------|---------------------------------|
E|---------------------------------|---------------------------------|

Verse:

  D chord


E|---------------------------------|---------------------------------|
B|---------7-------5---7-------5---|-7-------7-------5---7-----------|
G|---------7-------5---7-------5---|-7-------7-------5---7-----------|
D|---------------------------------|---------------------------------|
A|-5-------------------------------|---------------------------------|
E|---------------------------------|---------------------------------|

  D chord


E|---------------------------------|---------------------------------|
B|---------7-------5---7-------5---|-7-------7-------5---7-----------|
G|---------7-------5---7-------5---|-7-------7-------5---7-----------|
D|---------------------------------|---------------------------------|
A|-5-------------------------------|---------------------------------|
E|---------------------------------|---------------------------------|


   G chord


E|------------------------------------|------------------------------|
B|--------12-------10---12-------10---|-12-------12-------10---12----|
G|--------12-------10---12-------10---|-12-------12-------10---12----|
D|------------------------------------|------------------------------|
A|-10----------------------------------------------------------------|
E|------------------------------------|------------------------------|


  D chord


E|---------------------------------|---------------------------------|
B|---------7-------5---7-------5---|-7-------7-------5---7-----------|
G|---------7-------5---7-------5---|-7-------7-------5---7-----------|
D|---------------------------------|---------------------------------|
A|-5-------------------------------|---------------------------------|
E|---------------------------------|---------------------------------|


  D chord


E|---------------------------------|---------------------------------|
B|---------7-------5---7-------5---|-7-------7-------5---7-----------|
G|---------7-------5---7-------5---|-7-------7-------5---7-----------|
D|---------------------------------|---------------------------------|
A|-5-------------------------------|---------------------------------|
E|---------------------------------|---------------------------------|


   A chord


E|------------------------------------|------------------------------|
B|--------14-------12---14-------12---|-14-------14-------12---14----|
G|--------14-------12---14-------12---|-14-------14-------12---14----|
D|------------------------------------|------------------------------|
A|-12---------------------------------|------------------------------|
E|------------------------------------|------------------------------|


   A chord


E|------------------------------------|------------------------------|
B|--------14-------12---14-------12---|-14-------14-------12---14----|
G|--------14-------12---14-------12---|-14-------14-------12---14----|
D|------------------------------------|------------------------------|
A|-12---------------------------------|------------------------------|
E|------------------------------------|------------------------------|

second Verse:

  D chord


E|---------------------------------|---------------------------------|
B|---------7-------5---7-------5---|-7-------7-------5---7-----------|
G|---------7-------5---7-------5---|-7-------7-------5---7-----------|
D|---------------------------------|---------------------------------|
A|-5-------------------------------|---------------------------------|
E|---------------------------------|---------------------------------|

  D chord


E|---------------------------------|---------------------------------|
B|---------7-------5---7-------5---|-7-------7-------5---7-----------|
G|---------7-------5---7-------5---|-7-------7-------5---7-----------|
D|---------------------------------|---------------------------------|
A|-5-------------------------------|---------------------------------|
E|---------------------------------|---------------------------------|


   G chord


E|------------------------------------|------------------------------|
B|--------12-------10---12-------10---|-12-------12-------10---12----|
G|--------12-------10---12-------10---|-12-------12-------10---12----|
D|------------------------------------|------------------------------|
A|-10----------------------------------------------------------------|
E|------------------------------------|------------------------------|


  D chord


E|---------------------------------|---------------------------------|
B|---------7-------5---7-------5---|-7-------7-------5---7-----------|
G|---------7-------5---7-------5---|-7-------7-------5---7-----------|
D|---------------------------------|---------------------------------|
A|-5-------------------------------|---------------------------------|
E|---------------------------------|---------------------------------|


  D chord


E|---------------------------------|---------------------------------|
B|---------7-------5---7-------5---|-7-------7-------5---7-----------|
G|---------7-------5---7-------5---|-7-------7-------5---7-----------|
D|---------------------------------|---------------------------------|
A|-5-------------------------------|---------------------------------|
E|---------------------------------|---------------------------------|

  D chord


E|---------------------------------|---------------------------------|
B|---------7-------5---7-------5---|-7-------7-------5---7-----------|
G|---------7-------5---7-------5---|-7-------7-------5---7-----------|
D|---------------------------------|---------------------------------|
A|-5-------------------------------|---------------------------------|
E|---------------------------------|---------------------------------|

   A chord


E|------------------------------------|------------------------------|
B|--------14-------12---14-------12---|-14-------14-------12---14----|
G|--------14-------12---14-------12---|-14-------14-------12---14----|
D|------------------------------------|------------------------------|
A|-12---------------------------------|------------------------------|
E|------------------------------------|------------------------------|


   A chord


E|------------------------------------|------------------------------|
B|--------14-------12---14-------12---|-14-------14-------12---14----|
G|--------14-------12---14-------12---|-14-------14-------12---14----|
D|------------------------------------|------------------------------|
A|-12---------------------------------|------------------------------|
E|------------------------------------|------------------------------|


  D chord


E|---------------------------------|---------------------------------|
B|---------7-------5---7-------5---|-7-------7-------5---7-----------|
G|---------7-------5---7-------5---|-7-------7-------5---7-----------|
D|---------------------------------|---------------------------------|
A|-5-------------------------------|---------------------------------|
E|---------------------------------|---------------------------------|

  D chord


E|---------------------------------|---------------------------------|
B|---------7-------5---7-------5---|-7-------7-------5---7-----------|
G|---------7-------5---7-------5---|-7-------7-------5---7-----------|
D|---------------------------------|---------------------------------|
A|-5-------------------------------|---------------------------------|
E|---------------------------------|---------------------------------|

GUITAR SOLO:

   G chord


E|------------------------------------|------------------------------|
B|--------12-------10---12-------10---|-12-------12-------10---12----|
G|--------12-------10---12-------10---|-12-------12-------10---12----|
D|------------------------------------|------------------------------|
A|-10----------------------------------------------------------------|
E|------------------------------------|------------------------------|


  D chord


E|---------------------------------|---------------------------------|
B|---------7-------5---7-------5---|-7-------7-------5---7-----------|
G|---------7-------5---7-------5---|-7-------7-------5---7-----------|
D|---------------------------------|---------------------------------|
A|-5-------------------------------|---------------------------------|
E|---------------------------------|---------------------------------|


   A chord


E|------------------------------------|------------------------------|
B|--------14-------12---14-------12---|-14-------14-------12---14----|
G|--------14-------12---14-------12---|-14-------14-------12---14----|
D|------------------------------------|------------------------------|
A|-12---------------------------------|------------------------------|
E|------------------------------------|------------------------------|

   A chord


E|------------------------------------|------------------------------|
B|--------14-------12---14-------12---|-14-------14-------12---14----|
G|--------14-------12---14-------12---|-14-------14-------12---14----|
D|------------------------------------|------------------------------|
A|-12---------------------------------|------------------------------|
E|------------------------------------|------------------------------|

  D chord


E|---------------------------------|---------------------------------|
B|---------7-------5---7-------5---|-7-------7-------5---7-----------|
G|---------7-------5---7-------5---|-7-------7-------5---7-----------|
D|---------------------------------|---------------------------------|
A|-5-------------------------------|---------------------------------|
E|---------------------------------|---------------------------------|


  D chord


E|---------------------------------|---------------------------------|
B|---------7-------5---7-------5---|-7-------7-------5---7-----------|
G|---------7-------5---7-------5---|-7-------7-------5---7-----------|
D|---------------------------------|---------------------------------|
A|-5-------------------------------|---------------------------------|
E|---------------------------------|---------------------------------|


LAST VERSE:


  D chord


E|---------------------------------|---------------------------------|
B|---------7-------5---7-------5---|-7-------7-------5---7-----------|
G|---------7-------5---7-------5---|-7-------7-------5---7-----------|
D|---------------------------------|---------------------------------|
A|-5-------------------------------|---------------------------------|
E|---------------------------------|---------------------------------|

  D chord


E|---------------------------------|---------------------------------|
B|---------7-------5---7-------5---|-7-------7-------5---7-----------|
G|---------7-------5---7-------5---|-7-------7-------5---7-----------|
D|---------------------------------|---------------------------------|
A|-5-------------------------------|---------------------------------|
E|---------------------------------|---------------------------------|


   G chord


E|------------------------------------|------------------------------|
B|--------12-------10---12-------10---|-12-------12-------10---12----|
G|--------12-------10---12-------10---|-12-------12-------10---12----|
D|------------------------------------|------------------------------|
A|-10----------------------------------------------------------------|
E|------------------------------------|------------------------------|


  D chord


E|---------------------------------|---------------------------------|
B|---------7-------5---7-------5---|-7-------7-------5---7-----------|
G|---------7-------5---7-------5---|-7-------7-------5---7-----------|
D|---------------------------------|---------------------------------|
A|-5-------------------------------|---------------------------------|
E|---------------------------------|---------------------------------|


  D chord


E|---------------------------------|---------------------------------|
B|---------7-------5---7-------5---|-7-------7-------5---7-----------|
G|---------7-------5---7-------5---|-7-------7-------5---7-----------|
D|---------------------------------|---------------------------------|
A|-5-------------------------------|---------------------------------|
E|---------------------------------|---------------------------------|

  D chord


E|---------------------------------|---------------------------------|
B|---------7-------5---7-------5---|-7-------7-------5---7-----------|
G|---------7-------5---7-------5---|-7-------7-------5---7-----------|
D|---------------------------------|---------------------------------|
A|-5-------------------------------|---------------------------------|
E|---------------------------------|---------------------------------|


   A chord


E|------------------------------------|------------------------------|
B|--------14-------12---14-------12---|-14-------14-------12---14----|
G|--------14-------12---14-------12---|-14-------14-------12---14----|
D|------------------------------------|------------------------------|
A|-12---------------------------------|------------------------------|
E|------------------------------------|------------------------------|


   A chord


E|------------------------------------|------------------------------|
B|--------14-------12---14-------12---|-14-------14-------12---14----|
G|--------14-------12---14-------12---|-14-------14-------12---14----|
D|------------------------------------|------------------------------|
A|-12---------------------------------|------------------------------|
E|------------------------------------|------------------------------|


   D chord


E|---------------------------------|---------------------------------|
B|---------7-------5---7-------7---|---------7-------5---7-------7---|
G|---------7-------5---7-------7---|---------7-------5---7-------7---|
D|---------------------------------|---------------------------------|
A|---------------------------------|---------------------------------|
E|---------------------------------|---------------------------------|

    D chord


E|---------------------------------|---------------------------------|
B|---------7-------5---7-------7---|---------7-------5---7-----------|
G|---------7-------5---7-------7---|---------7-------5---7-----------|
D|---------------------------------|---------------------------------|
A|---------------------------------|---------------------------------|
E|---------------------------------|---------------------------------|

    D chord


E|---------------------------------|---------------------------------|
B|-7-------7-------5---7-------7---|---------7-------5---7-----------|
G|-7-------7-------5---7-------7---|---------7-------5---7-----------|
D|---------------------------------|---------------------------------|
A|---------------------------------|---------------------------------|
E|---------------------------------|---------------------------------|

OUTRO:

for both rythem and lead


E|---------------------------------|---------------------------------|
B|---------------------------------|---------------------------------|
G|---------------------------------|---------------------------------|
D|-2-------------------------------|-2-------------------------------|
A|-0-------------------------------|-3-------------------------------|
E|---------------------------------|---------------------------------|

   D chords                                       strum D chord

E|---------------------------------|---------------------------------|
B|---------7-------5---7-------5---|---------7----------7------------|
G|---------7-------5---7-------5---|---------7----------7------------|
D|---------------------------------|---------------------------------|
A|-5-------------------------------|---------------------------------|
E|---------------------------------|---------------------------------|

any questions email me at   thesilverleather@hotmail.com
Tap to rate this tab
# A B C D E F G H I J K L M N O P Q R S T U V W X Y Z