Song name
# A B C D E F G H I J K L M N O P Q R S T U V W X Y Z

Beatles - Think For Yourself tab

Think for Yourself
Tabbed By Mark Willett

Intro:
Guitar One
  G7      hold.....
E|------3---------------------|------------------------------|
B|------6---------------------|------------------------------|
G|------4---------------------|------------------------------|
D|------3---------------------|------------------------------|
A|-5----5---------------------|---------------5----5----6----|
E|-3----3---------------------|---------------3----3----4----|
Guitar Two
E|----------------------------|------------------------------|
B|----------------------------|------------------------------|
G|----------------------------|------------------------------|
D|-5---3/5-----5-----3h5--5---|-5------5------5----5----6----|
A|----------------------------|------------------------------|
E|----------------------------|------------------------------|

Verse:
1.             I've got  a      word       or two
2.             I left    you    far        behind
3.             Although  your   mind's     opaque
  Am                           Dm
E|----------------------------|------------------------------|
B|----------------------------|------------------------------|
G|----------------------------|-7------------7/9---7----5----|
D|-7--------------------------|------------------------------|
A|----------------------------|------------------------------|
E|----------------------------|------------------------------|

               To say about       the things that you
               The ruins of       the life you
               Try thinking more  if just for your
  Bb                           C
E|----------------------------|------------------------------|
B|----------------------------|------------------------------|
G|----------------------------|-5------------------------5---|
D|-8----------------------8---|------------------------------|
A|----------------------------|------------------------------|
E|----------------------------|------------------------------|

        do
        had in mind
        own sake
  G7
E|----------------------------|------------------------------|
B|----------------------------|------------------------------|
G|----------------------------|--------------------5----6----|
D|-5----------------5---------|-5----------------------------|
A|-----------------------5----|------------------------------|
E|----------------------------|------------------------------|

1.             You're telling   all those lies
2.             And though you   still can't see
3.             The future       still looks good
  Am                           Dm
E|----------------------------|------------------------------|
B|----------------------------|------------------------------|
G|----------------------------|-7------------7/9---7----5----|
D|-7----------------------7---|------------------------------|
A|----------------------------|------------------------------|
E|----------------------------|------------------------------|

               About the good       things that we can
               I know you're mind's made up  You  're
               And you've got time  to rec   ti    fy
  Bb                           C
E|----------------------------|------------------------------|
B|----------------------------|------------------------------|
G|----------------------------|-5------------------------5---|
D|-8----------------------8---|------------------------------|
A|----------------------------|------------------------------|
E|----------------------------|------------------------------|

        have if we close         our eyes
        gonna cause more         misery
        All the things that      you should
  G7                           Am
E|----------------------------|------------------------------|
B|----------------------------|------------------------------|
G|----------------------------|------------------------------|
D|-5----------------------5---|-7--------------------x-x-5\--|
A|----------------------------|------------------------------|
E|----------------------------|------------------------------|

Chorus:

  Do what you want to do                                 And
  C7
E|----------------------------|------------------------------|
B|----------------------------|------------------------------|
G|----------------------------|---------3------2-------------|
D|---------2--- -5---5---2----|--------------------5---2-----|
A|-3---3----------------------|-3---3------------------------|
E|----------------------------|------------------------------|

  Go where you're going to
  G7                           C
E|----------------------------|------------------------------|
B|----------------------------|------------------------------|
G|---------4-----7---7---4----|------------------------------|
D|-5---5----------------------|------3-----------------------|
A|----------------------------|-5---------5----3----1--------|
E|----------------------------|---------------------------3--|

  Think for yourself 'cause    I won't be there with you
  Eb/Bb                        D7
E|----------------------------|------------------------------|
B|----------------------------|------------------------------|
G|----------------------------|------------------------------|
D|----------------------------|------------------------------|
A|-1------------------1---3---|-5-----------------5------5---|
E|----------------------------|------------------------------|

1,2,3:

  G7
E|----------------------------|------------------------------|
B|----------------------------|------------------------------|
G|---------3------------------|------------------------------|
D|-5--------------------------|----3-------5---------5---6---|
A|------------------------5---|------------------------------|
E|----------------------------|------------------------------|
go back to the top...

4:

  G7
E|----------------------------|------------------------------|
B|----------------------------|------------------------------|
G|----------------------------|------------------------------|
D|-5------5-------------------|-5-----5------5h3-------------|
A|------------------------5---|------------------5---3---1---|
E|----------------------------|------------------------------|

Final Chorus:

  Do what you want to do                                 And
  C7
E|----------------------------|------------------------------|
B|----------------------------|------------------------------|
G|----------------------------|-----3---------2--------------|
D|----------------------------|-------------------5---2------|
A|-1---3------1---3---3---1---|-3----------------------------|
E|----------------------------|------------------------------|

  Go where you're going to
  G7                           C
E|----------------------------|------------------------------|
B|----------------------------|------------------------------|
G|---------4-----7---7---4----|------------------------------|
D|-5---5----------------------|------3-----------------------|
A|----------------------------|-5---------5----3----1--------|
E|----------------------------|---------------------------3--|

  Think for yourself 'cause    I won't be there with you
  Eb/Bb                        D7
E|----------------------------|------------------------------|
B|----------------------------|------------------------------|
G|----------------------------|------------------------------|
D|----------------------------|------------------------------|
A|-1-----1-----1------1---3---|-5------5------5---5------5---|
E|----------------------------|------------------------------|

  C7                           G
E|----------------------------|------------------------------|
B|----------------------------|------------------------------|
G|----------------------------|------------------------------|
D|----------------------------|-5------5------5---5----------|
A|-3-----3-----3---3----------|--------------------------3---|
E|------------------------3---|------------------------------|

Think for yourself 'cause    I won't be there with you
  Eb/Bb                        D7
E|----------------------------|------------------------------|
B|----------------------------|------------------------------|
G|----------------------------|------------------------------|
D|----------------------------|------------------------------|
A|-1-----1-----1---1------3---|-5------5------5---5------5---|
E|----------------------------|------------------------------|

C7                             G
E|----------------------------|------------------------------|
B|----------------------------|------------------------------|
G|-------3-----5p3------3-----|------------------------------|
D|-3/5-------------5----------|-5-------3---5----------------|
A|----------------------------|-----5------------------------|
E|----------------------------|------------------------------|
Tap to rate this tab
# A B C D E F G H I J K L M N O P Q R S T U V W X Y Z