Song name
# A B C D E F G H I J K L M N O P Q R S T U V W X Y Z

Beatles - In Spite Of All The Danger tab

IN SPITE OF ALL THE DANGER


Written by Paul McCartney & George Harrison



INTRO

                                                                  00:00

e|---------------------------------|---------------------------------|
B|---------------------------------|---------------------------------|
G|---------------------------------|------------------------------9--|
D|---------------------------------|---------------------------------|
A|---------------------------------|---------------------------------|
E|---------------------------------|---------------------------------|





e|---------12---12-10------12---12-|-10----7-2--2--2-2--2--2-2--2--2-|
B|-9----12--------------12---------|---------0--0--0-0--0--0-0--0--0-|
G|---------------------------------|---------2--2--2-2--2--2-2--2--2-|
D|---------------------------------|---------1--1--1-1--1--1-1--1--1-|
A|---------------------------------|---------------------------------|
E|---------------------------------|---------------------------------|





    GUITAR SOLO



e|---------------------------------|---------------------------------|
B|---------------------------------|---------------------------------|
G|---------------------------------|------------------------------9--|
D|---------------------------------|---------------------------------|
A|---------------------------------|---------------------------------|
E|---------------------------------|---------------------------------|




  01:36

e|---------12---12-10------12---12-|-10------12---12-10------12---12-|
B|-9----12--------------12---------|---9-12---------------12---------|
G|---------------------------------|---------------------------------|
D|---------------------------------|---------------------------------|
A|---------------------------------|---------------------------------|
E|---------------------------------|---------------------------------|





e|-10------12---12-10------12---12-|-10------12-10---12-10---12-10---|
B|---9-12---------------12---------|------12-------12------12------12|
G|---------------------------------|---------------------------------|
D|---------------------------------|---------------------------------|
A|---------------------------------|---------------------------------|
E|---------------------------------|---------------------------------|





e|-12---12-15---15-14---12-15---15-|-14---12-15---15-14---12-15---15-|
B|---------------------------------|---------------------------------|
G|---------------------------------|---------------------------------|
D|---------------------------------|---------------------------------|
A|---------------------------------|---------------------------------|
E|---------------------------------|---------------------------------|





e|-12---12-12---12-10------12---12-|-10------12-10---12-10---12-10---|
B|----------------------12---------|------12-------12------12------12|
G|---------------------------------|---------------------------------|
D|---------------------------------|---------------------------------|
A|---------------------------------|---------------------------------|
E|---------------------------------|---------------------------------|





e|-12------2----2--2----2--2----2--|-2--2--2-0----0--0----0--0----0--|
B|---------------------------------|---------------------------------|
G|---------2----2--2----2--2----2--|-2--2--2-2----2--2----2--2----2--|
D|---------------------------------|---------------------------------|
A|---------------------------------|---------------------------------|
E|---------------------------------|---------------------------------|





e|-0-------12---12-10------12---12-|-10---7--2----2--2----2--2----2--|
B|----------------------12---------|---------0----0--0----0--0----0--|
G|-2-------------------------------|---------2----2--2----2--2----2--|
D|---------------------------------|---------1----1--1----1--1----1--|
A|---------------------------------|---------------------------------|
E|---------------------------------|---------------------------------|....
Tap to rate this tab
 
# A B C D E F G H I J K L M N O P Q R S T U V W X Y Z