Guitaretab - guitar tabs
Song name
# A B C D E F G H I J K L M N O P Q R S T U V W X Y Z

Beatles - Hey Jude tab

-------------------------------------------------------------------------------
			Hey Jude- The Beatles
-------------------------------------------------------------------------------
Tabbed by: Levi
Email: levischrumpf@yahoo.com

  Okay, someone else tried to tab the vocal part but it was only on one stringÖ and in
wrong key. this may look like another tab (I already submitted this once, but I was
a note).  I donít know if anyone cares about the vocal part, but this is pretty close to 
real thing.  Feel free to comment on it or send me corrections.  Im only 14, and this is
first tab, so donít be too harsh.  GO BEATLES!


Tuning: EADGBe

e|---------------------------------------------------------------------------|
B|-----------------------------6--6-5-----------------------8-6-5-6----------|
G|--5----------5-7--------------------5-7-5--------5-7-7--7---------7-5------|
D|-----7-----7-----5----5-7-8---------------8-7------------------------------|
A|---------------------------------------------------------------------------|
E|---------------------------------------------------------------------------|
									   X2
e|---------------------------------------------------------------------------|
B|---------------------------------------------------------------------------|
G|--------7-5---5------------------------------------------------------------|
D|----5-7---------8-7--------------------------------------------------------|
A|--8------------------7-8---------------------------------------------------|
E|---------------------------------------------------------------------------|

e|---------------------------------------------------------------------------|
B|-----6--------------6----6-----6-------------------------------------------|
G|---5----8-7-5-5--7----7----------7-5---5--7-5------------------------------|
D|---------------8-----------8---------8--------8-7--------------------------| X2
A|--------------------------------------------------8------------------------|
E|---------------------------------------------------------------------------|

e|---------------------------------------------------------------------------|
B|-------------5-6-8-8-------------------------------------------------------|
G|----5-7-8-8----------------------------------------------------------------|
D|---------------------------------------------------------------------------|
A|--8------------------------------------------------------------------------|
E|---------------------------------------------------------------------------|
[ Tab from: http://www.guitaretab.com/b/beatles/186534.html ]
e|---------------------------------------------------------------------------|
B|-----------------------------6--6-5-----------------------8-6-5-6----------|
G|--5----------5-7--------------------5-7-5--------5-7-7--7---------7-5------|
D|-----7-----7-----5----5-7-8---------------8-7------------------------------|
A|---------------------------------------------------------------------------|
E|---------------------------------------------------------------------------|
									   X2
e|---------------------------------------------------------------------------|
B|---------------------------------------------------------------------------|
G|--------7-5---5------------------------------------------------------------|
D|----5-7---------8-7--------------------------------------------------------|
A|--8------------------7-8---------------------------------------------------|
E|---------------------------------------------------------------------------|


e|---------------------------------------------------------------------------|
B|-----6--------------6----6-----6-------------------------------------------|
G|---5----8-7-5-5--7----7----------7-5---5--7-5------------------------------|
D|---------------8-----------8---------8--------8-7--------------------------| X2
A|--------------------------------------------------8------------------------|
E|---------------------------------------------------------------------------|


e|---------------------------------------------------------------------------|
B|-------------5-6-8-8-------------------------------------------------------|
G|----5-7-8-8----------------------------------------------------------------|
D|---------------------------------------------------------------------------|
A|--8------------------------------------------------------------------------|
E|---------------------------------------------------------------------------|


e|---------------------------------------------------------------------------|
B|-----------------------------6--6-5-----------------------8-6-5-6----------|
G|--5----------5-7--------------------5-7-5--------5-7-7--7---------7-5------|
D|-----7-----7-----5----5-7-8---------------8-7------------------------------|
A|---------------------------------------------------------------------------|
E|---------------------------------------------------------------------------|

e|---------------------------------------------------------------------------|
B|---------------------------------------------------------------------------|
G|--------7-5---5------------------------------------------------------------|
D|----5-7---------8-7--------------------------------------------------------|
A|--8------------------7-8---------------------------------------------------|
E|---------------------------------------------------------------------------|

e|---------------------------------------------------------------------------|
B|---------8-6-8-6--8-6-8-6--------------------------------------------------|
G|-------5-------------------8p7-5-------------------------------------------|
D|-----7---------------------------------------------------------------------| X18
A|--8------------------------------------------------------------------------|
E|---------------------------------------------------------------------------|


| /  slide up
| \  slide down
| h  hammer-on
| p  pull-off
| ~  vibrato
| +  harmonic
| x  Mute note
===============================================================================
Related for Hey Jude tab