Song name
# A B C D E F G H I J K L M N O P Q R S T U V W X Y Z

Beatles - I Saw Her Standing There Live tab

-------------------------------------------------------------------------------
The Beatles-I Saw Her Standing There (Solo)
-------------------------------------------------------------------------------


Live at the Cavern Club, 1962


e|---------------------------------------------------------------------------|
B|---------------------------------------------------------------------------|
G|---------------------------------------------------2-------0-2--4-4-2p0----|
D|------0--0--------------0-2-2/4-4-0--------0-2-2/4-----0-2--------------2--|
A|--0h2------2------0h2-2---------------2--2-----------2---------------------|
E|-------------3-0-----------------------------------------------------------|


                                                                 .25
e|--------------3-5-5b7r5-3-5b7-5b7-5b7r5-3------0---------------------------|
B|---------3-5------------------------------5----0---------------------------|
G|---0-2-4------------------------------------/4---4\2\0---------------------|
D|-2------------------------------------------------------0h2-2--------------|
A|--------------------------------------------------------------2------------|
E|----------------------------------------------------------------3b-0-3-3-3-|

Tap to rate this tab
# A B C D E F G H I J K L M N O P Q R S T U V W X Y Z