Song name
# A B C D E F G H I J K L M N O P Q R S T U V W X Y Z

Beatles - Kansas City Hey Hey Hey tab

-------------------------------------------------------------------------------
The Beatles- Kansas City/Hey-Hey-Hey! (Solo)
-------------------------------------------------------------------------------

From "Anthology"

e|--3--------------------3--------------------3-6b7-3----6-8-----------------|
B|--3--------------------3----------------3-5---------/8---------------------|
G|----6-5-5\3--------5b7---7r5-3------3-5------------------------------------|
D|-------------5-5-5-------------5--5----------------------------------------|
A|---------------------------------------------------------------------------|
E|---------------------------------------------------------------------------|

e|--8b10r8-6---6-8b10r8-6---8b10r8-6----8b10r8-6----3--------3-----3---------|
B|-----------8------------8----------8-----------8--3--------3-----3---------|
G|----------------------------------------------------6-5-3----5b7-----------|
D|---------------------------------------------------------------------------|
A|---------------------------------------------------------------------------|
E|---------------------------------------------------------------------------|

e|---------------------------------------------------------------------------|
B|---------------------------------5-------5---------------------------------|
G|--7r5-3--------------------3-5-5-5b6r5---5b6r5-3---------------------------|
D|---------------3-3-----3-5-----------------------5-------------------------|
A|-------------5-----5-5-----------------------------------------------------|
E|---------------------------------------------------------------------------|

Tap to rate this tab
# A B C D E F G H I J K L M N O P Q R S T U V W X Y Z