Song name
# A B C D E F G H I J K L M N O P Q R S T U V W X Y Z

Beatles - Thats All Right Mama tab

This are the solos performed by George at the Live At The BBC

Solo 1
                                                              1/2 )
|------------------|------------------|--------------------------/-|
|------------------|------------------|-------------------------/--|
|-7h9--7--6--7h9---|-7h9--7--6--7h9---|-9--7--6--7h9--11--9--11/---|
|------------------|------------------|----------------------------|
|------------------|------------------|----------------------------|
|------------------|------------------|----------------------------|

|-------------------------|--------------------|--------------------|
|-------------------------|-10-----10-----10---|-10-----10-----10---|
|-11--9--7--6-------------|-----11-----11------|-----11-----11------|
|--------------9-7--------|--------------------|--------------------|
|---------------------14\-|--------------------|--------------------|
|-------------------------|--------------------|--------------------|

|---------3-2-3p2----|---------3-2-3p2----|--------------------|
|-12-----------------|-12-----------------|-10-----10-----10---|
|-----11-------------|-----11-------------|-----11-----11------|
|--------------------|--------------------|--------------------|
|--------------------|--------------------|--------------------|
|--------------------|--------------------|--------------------|

|--------------------|
|-10--10--10--10-----|
|-7---7---7---7------|
|--------------------|
|--------------------|
|--------------------|

Solo 2
                                                              1/2 )
|------------------|------------------|--------------------------/-|
|------------------|------------------|-------------------------/--|
|-7h9--7--6--7h9---|-7h9--7--6--7h9---|-9--7--6--7h9--11--9--11/---|
|------------------|------------------|----------------------------|
|------------------|------------------|----------------------------|
|------------------|------------------|----------------------------|

|-------------------------|--------------------|--------------------|
|-------------------------|-10-----10-----10---|-10-----10-----10---|
|-11--9--7--6-------------|-----11-----11------|-----11-----11------|
|--------------9-7--------|--------------------|--------------------|
|---------------------14\-|--------------------|--------------------|
|-------------------------|--------------------|--------------------|

|---------------------|---------------------|
|-12-----12--12-12----|-12--12----12--13----|
|-----11--------------|-10--10----10--11----|
|---------------------|---------------------|
|---------------------|---------------------|
|---------------------|---------------------|
Tap to rate this tab
# A B C D E F G H I J K L M N O P Q R S T U V W X Y Z