Guitaretab - guitar tabs
Song name
# A B C D E F G H I J K L M N O P Q R S T U V W X Y Z

Beatles - I Got A Woman tab

This is the solo performed by George at the Live At The BBC.

|-----11---9--------9--------|-----11---9--------9--------|
|--------------11------10/11-|--------------11------10/11-|
|----------------------------|----------------------------|
|----------------------------|----------------------------|
|-5/-------------------------|-5/-------------------------|
|----------------------------|----------------------------|
[ Tab from: http://www.guitaretab.com/b/beatles/191929.html ]
|----------------------------|-------0--------0---0--0--|
|----------------------------|--------------------------|
|------12---9---12---12--12--|-9h12---------------------|
|----------------------------|-----------12-------------|
|-10-------------------------|--------------------------|
|----------------------------|--------------------------|

|----------------------------|-------0----------------------|
|----------------------------|---------------------8--------|
|------12---9---12---12--12--|-9h12-----------7h9-----9--7--|
|----------------------------|-----------12-----------------|
|-10-------------------------|------------------------------|
|----------------------------|------------------------------|

|-------3-----3-----3-----3-|-(3)----0--------0---0--0--|
|-------4-----4-----4-----4-|-(4)-----------------------|
|----5----------------------|---------------------------|
|-5--------4-----3-----4----|-----4------12-------------|
|---------------------------|---------------------------|
|---------------------------|---------------------------|
Related for I Got A Woman tab